Cifra Club

Ben Je Geil Of Wil Je Een Koekje

Heideroosjes

Cifrado: Principal (guitarra y guitarra eléctrica)
Selo Cifra Club: esta cifra foi revisada para atender aos critérios oficiais da nossa Equipe de Qualidade.
tono: F
---------------------------------------------------------------------------|Ben je geil 
---------------------------------------------------------------------------|

this is an very easy song, everybody can play this. I think that I'm very accurate with 
tab and if there are problems or mistakes, e-mail at *



Intro:
    D5      G5            D5
e------------------------------------------------------------|
B------------------------------------------------------------|
G---7--7--7-7--12--12--12--12-12--7--------------------------|
D---7--7--7-7--12--12--12--12-12--7--------------------------|
A---5--5--5-5--10--10--10--10-10--5--------------------------|
E------------------------------------------------------------|

    D5      G5            D5
e------------------------------------------------------------|
B----------------------------------------11h13~~~------------|
G---7--7--7-7--12--12--12--12-12--7--------------------------|
D---7--7--7-7--12--12--12--12-12--7--------------------------|
A---5--5--5-5--10--10--10--10-10--5--------------------------|
E------------------------------------------------------------|

e------------------------------------------------------------|
B------------------------------------------------------------|
G---7----7-7--12--12--12--12-12--7-------5-7^9-7-5----5-7~~--|
D---7----7-7--12--12--12--12-12--7-----7------------7--------|
A---5----5-5--10--10--10--10-10--5---------------------------|
E------------------------------------------------------------|

    D5      G5            D5
e------------------------------------------------------------|
B------------------------------------------------------------|
G---7--7--7-7--12--12--12--12-12--7--------------------------|
D---7--7--7-7--12--12--12--12-12--7--------------------------|
A---5--5--5-5--10--10--10--10-10--5--------------------------|
E------------------------------------------------------------|

Verse 1 + 2 + 3

    D5      G5            D5
e------------------------------------------------------------|
B------------------------------------------------------------|
G---7--7--7-7--12--12--12--12-12--7--------------------------|
D---7--7--7-7--12--12--12--12-12--7--------------------------|
A---5--5--5-5--10--10--10--10-10--5--------------------------|
E------------------------------------------------------------|

    D5      G5            D5
e------------------------------------------------------------|
B------------------------------------------------------------|
G---7--7--7-7--12--12--12--12-12--7--------------------------|
D---7--7--7-7--12--12--12--12-12--7--------------------------|
A---5--5--5-5--10--10--10--10-10--5--------------------------|
E------------------------------------------------------------|
    G5      C5            G5
e------------------------------------------------------------|
B------------------------------------------------------------|
G------------------------------------------------------------|
D---5--5--5-5--10--10--10--10-10--5--------------------------|
A---5--5--5-5--10--10--10--10-10--5--------------------------|
E---3--3--3-3--8---8---8---8--8---3--------------------------|

    D5      G5            D5
e------------------------------------------------------------|
B------------------------------------------------------------|
G---7--7--7-7--12--12--12--12-12--7--------------------------|
D---7--7--7-7--12--12--12--12-12--7--------------------------|
A---5--5--5-5--10--10--10--10-10--5--------------------------|
E------------------------------------------------------------|

    A5
e------------------------------------------------------------|
B------------------------------------------------------------|
G------------------------------------------------------------|
D---7-7-7-7-7-7-7-7------------------------------------------|
A---7-7-7-7-7-7-7-7------------------------------------------|
E---5-5-5-5-5-5-5-5------------------------------------------|

    D5      G5            D5
e------------------------------------------------------------|
B------------------------------------------------------------|
G---7--7--7-7--12--12--12--12-12--7--------------------------|
D---7--7--7-7--12--12--12--12-12--7--------------------------|
A---5--5--5-5--10--10--10--10-10--5--------------------------|
E------------------------------------------------------------|

Chorus

    D5      G5            D5
e------------------------------------------------------------|
B------------------------------------------------------------|
G---7--7--7-7--12--12--12--12-12--7--7--7--7--7--7--7--7--7--|
D---7--7--7-7--12--12--12--12-12--7--7--7--7--7--7--7--7--7--|
A---5--5--5-5--10--10--10--10-10--5--5--5--5--5--5--5--5--5--|
E------------------------------------------------------------|

    D5      G5            D5
e------------------------------------------------------------|
B------------------------------------------------------------|
G---7--7--7-7--12--12--12--12-12--7--7--7--7--7--7--7--7--7--|
D---7--7--7-7--12--12--12--12-12--7--7--7--7--7--7--7--7--7--|
A---5--5--5-5--10--10--10--10-10--5--5--5--5--5--5--5--5--5--|
E------------------------------------------------------------|

    G5      C5            G5
e-------------------------------------------------------------|
B-------------------------------------------------------------|
G-------------------------------------------------------------|
D---5--5--5-5--10--10--10--10-10--5--5--5--5--5--5--5--5--5---|
A---5--5--5-5--10--10--10--10-10--5--5--5--5--5--5--5--5--5---|
E---3--3--3-3--8---8---8---8--8---3--3--3--3--3--3--3--3--3---|

    D5      G5            D5
e------------------------------------------------------------|
B------------------------------------------------------------|
G---7--7--7-7--12--12--12--12-12--7--7--7--7--7--7--7--7--7--|
D---7--7--7-7--12--12--12--12-12--7--7--7--7--7--7--7--7--7--|
A---5--5--5-5--10--10--10--10-10--5--5--5--5--5--5--5--5--5--|
E------------------------------------------------------------|

    A5
e------------------------------------------------------------|
B------------------------------------------------------------|
G------------------------------------------------------------|
D---7-7-7-7-7-7-7-7------------------------------------------|
A---7-7-7-7-7-7-7-7------------------------------------------|
E---5-5-5-5-5-5-5-5------------------------------------------|

    D5      G5            D5
e------------------------------------------------------------|
B------------------------------------------------------------|
G------------7--12--12--12--12-12--7-------------------------|
D------------7--12--12--12--12-12--7-------------------------|
A------------5--10--10--10--10-10--5-------------------------|
E------------------------------------------------------------|

Bridge (listen to the song and you will know what I mean with the rhythm)

    D5      G5            D5
e------------------------------------------------------------|
B------------------------------------------------------------|
G---7--7--7-7--12--12--12--12-12--7--7--7--7--7--7--7--7--7--|
D---7--7--7-7--12--12--12--12-12--7--7--7--7--7--7--7--7--7--|
A---5--5--5-5--10--10--10--10-10--5--5--5--5--5--5--5--5--5--|
E------------------------------------------------------------|
                                  .  .  .  .  .  .  .  .  .

    D5      G5            D5
e------------------------------------------------------------|
B------------------------------------------------------------|
G---7--7--7-7--12--12--12--12-12--7--7--7--7--7--7--7--7--7--|
D---7--7--7-7--12--12--12--12-12--7--7--7--7--7--7--7--7--7--|
A---5--5--5-5--10--10--10--10-10--5--5--5--5--5--5--5--5--5--|
E------------------------------------------------------------|
    .  .                          .  .  .  .  .  .  .  .  .

    G5      C5            G5
e-------------------------------------------------------------|
B-------------------------------------------------------------|
G-------------------------------------------------------------|
D---5--5--5-5--10--10--10--10-10--5--5--5--5--5--5--5--5--5---|
A---5--5--5-5--10--10--10--10-10--5--5--5--5--5--5--5--5--5---|
E---3--3--3-3--8---8---8---8--8---3--3--3--3--3--3--3--3--3---|
    .  .                          .  .  .  .  .  .  .  .  .

    D5      G5            D5
e------------------------------------------------------------|
B------------------------------------------------------------|
G---7--7--7-7--12--12--12--12-12--7--7--7--7--7--7--7--7--7--|
D---7--7--7-7--12--12--12--12-12--7--7--7--7--7--7--7--7--7--|
A---5--5--5-5--10--10--10--10-10--5--5--5--5--5--5--5--5--5--|
E------------------------------------------------------------|
    .  .                          .  .  .  .  .  .  .  .  .
    A5
e------------------------------------------------------------|
B------------------------------------------------------------|
G------------------------------------------------------------|
D---7-7-7-7-7-7-7-7------------------------------------------|
A---7-7-7-7-7-7-7-7------------------------------------------|
E---5-5-5-5-5-5-5-5------------------------------------------|


Order: verse 1
       Verse 2
       Chorus
       Verse 3
       Chorus
       Bridge
       Chorus 2X

i hope you understand the tab and much fun with it!!!
00:00 / 00:00
Otros videos de esta canción
Repetir
Otros videos de esta canción
241 exhibiciones
    • ½ Tono
    • A
    • Bb
    • B
    • C
    • Db
    • D
    • Eb
    • E
    • F
    • F#
    • G
    • Ab
  • Agregar a la lista

Afinación de cifrado

Afinador online

    00:00 / 00:00
    OK