Cifra Club

Hino da União Soviética

Hinos

Cifrado: Principal (guitarra y guitarra eléctrica)
Selo Cifra Club: esta cifra foi revisada para atender aos critérios oficiais da nossa Equipe de Qualidade.
tono: Eb (con acordes en la forma de C) Capotraste en 3ª casa
[Intro]

    C
E|-0--0--0--0--0--0--0--0--0--0--0--0--0------|
B|-1--1--1--1--1--1--1--1--1--1--1--1--1------|
G|-0--0--0--0--0--0--0--0--0--0--0--0--0------|
D|-2--2--2--2--2--2--2--2--2--2--2--2--2------|
A|-3--3--3--3--3--3--3--3--3--3--3--3--3------|
E|--------------------------------------------|

         C             Em            F             C
E|-----|-------------|-------------|-------------|-------------|
B|-----|-1-----------|-0-----------|-------------|-------------|
G|--0--|-------0---2-|-------------|-2-----0-----|-0-----------|
D|-----|----2--------|-------2--2--|----0------3-|----------0--|
A|-----|-3-----------|----2--------|-------------|-3--3--3-----|
E|-----|-------------|-0-----------|-1-----------|-------------|

   Dm            F/C           C             G
E|-------------|-------------|-------------|-------------|
B|-------------|-------------|-------0--1--|-3-----------|
G|-2-----------|----------0--|-2-----------|-0--------0--|
D|-0--0--0--2--|-3-----3-----|----0--------|-0----0------|
A|-------------|-3--3--------|-3-----------|-------------|
E|-------------|-------------|-------------|-3--3--------|

   C             G             Am            Em
E|-0-----------|-------------|-------------|-------------|
B|-1-----3---1-|-3-----0-----|-1-----0-----|-0-----------|
G|-0--0--------|-0--------0--|-2---------2-|-0-----------|
D|-------------|-0-----------|-2--2--------|-2-----2--2--|
A|-3-----------|-------------|-0-----------|----2--------|
E|-------------|-3--3--------|-------------|-0-----------|

   F             C             D7/4          G
E|-------------|-------------|-------------|-------------|
B|-------------|-------------|-1-----0-----|-----------0-|
G|-2-----0-----|-0-----------|-----------2-|-0------0----|
D|----0-----3--|----------0--|-0--0--------|----0--------|
A|-------------|-3--3--3-----|-------------|-------------|
E|-1-----------|-------------|-------------|-3-----------|

   C             G
E|-0-----------|-------------|-------------|-------------|
B|-1--------1--|-3--1--0--1--|-3-----------|-------------|
G|-0-----0-----|-0-----------|-------0--0--|-0--------0--|
D|----2--------|-------------|----0--------|-------0-----|
A|-3-----------|-------------|-------------|-------------|
E|-------------|-3-----------|-3-----------|----3--------|

   Am            Em
E|-------------|-------------|-------------|-------------|
B|-1-----------|-0-----------|-0-----------|-------------|
G|-2------2----|----2--0--2--|-------------|-------------|
D|-2---2----2--|-------------|-------2--2--|-2--------2--|
A|-0-----------|-------------|----2--------|-------2-----|
E|-------------|-0-----------|-0-----------|----0--------|

   F
E|-------------|-------------|-------------|-1-----------|
B|-1---------0-|-1---------0-|-1--------1--|-1-----------|
G|-2-----2-----|-2-----2-----|-2-----2-----|-2--------2--|
D|-3-----------|-3-----------|-3-----------|------3------|
A|-------------|-------------|-------------|-------------|
E|-1-----------|-1-----------|-1-----------|-1--1--------|

   Dm            G             C
E|-1-----------|-0-----------|-0-----------|-------------|
B|-3-----------|-0--3--1--3--|-1--------1--|-1-----------|
G|-2------2----|-0-----------|-0-----0-----|----------0--|
D|-0---0----0--|-------------|----2--------|-------2-----|
A|-------------|-------------|-3-----------|----3--------|
E|-------------|-3-----------|-------------|-------------|

   Dm            Em             Am
E|-------------|-------------|-------------|-------------|
B|-3--------3--|-1--0-----0--|-1-----------|-------------|
G|-2-----2-----|-------2-----|-2----2---2--|-2--------2--|
D|-0---0-------|-------------|-2--2--------|------2------|
A|-------------|-------------|-0-----------|---0---------|
E|-------------|-0-----------|-------------|-------------|

   F             C             D7/4          G
E|-------------|-------------|-------------|-------------|
B|-1-----0-----|-------------|-1-----0-----|-------------|
G|-2--------2--|-0-----------|----------2--|-0--------0--|
D|-3-----------|-------------|-0-----------|-------------|
A|-------------|-3-----3---3-|-------------|-------------|
E|-1-----------|-------------|-------------|-3-----------|

   F             C             G             Am     G/B    C
E|-------------|-------------|-------------|-------------|---|
B|-1-----0-----|-------------|-------------|-------0-----|-1-|
G|-2--------2--|-0-----------|-0-----------|-2-----0-----|-0-|
D|-3-----------|-------------|-------------|-2-----------|-2-|
A|-------------|-3-----3-----|-------------|-0-----2-----|-3-|
E|-1-----------|-------------|-3-----------|-------------|---|
Otros videos de esta canción
    20.786 exhibiciones
      • ½ Tono
      • A
      • Bb
      • B
      • C
      • Db
      • D
      • Eb
      • E
      • F
      • F#
      • G
      • Ab
    • Agregar a la lista

    Afinación de cifrado

    Afinador online

      OK