Cifra Club

Driving Home

Hot Water Music

Tab de bajo: Principal
Album: NO DIVISION
Tabbed by Marco F. 

Standard Tuning E A D G
Play with a pick.

INTRO

A 7--5-----3--2-----7--5--3  PLAY 2X
E ------3--------3---------

then play several times:

A 5-5----7-7----2-2----3-3-3-2

VERSE

A 7-7-7-7-5-5-5-5------------------3-3-3-2-2-2   
E ----------------3-3-3-3-3-3-3-3-------------
						
A 7-7-7-7-5-5-5-5-3-3-3-3-3-3-3-3 

CHORUS

D -----5------4~--------------------------
A ------------------2~-----3-3-3-3-3-3 etc.  
E 3-3------------------------------------

  Notice: ~ means bend string

A 7-7-7-7-7-7-7-7-5-5-5-5-5-5-5-5-3-3-3-3-3-3-3-3

BRIDGE

A 5-5-5-5 etc. 3-3-3-3 etc. 5-5-5-5 *
E ---------------------------------------3-3-3-3 etc.
00:00 / 00:00
Otros videos de esta canción
Repetir
Otros videos de esta canción
Compositor no encontrado.
14 exhibiciones
00:00 / 00:00
OK