Cifra Club

The Other Side Of This Life

Jefferson Airplane

Tablatura: Principal (guitarra)
reproducciones 64
Tono: G
E|------------------------------|
B|------------------------------|
G|------------------------------|
D|-----------------1-2----------|
A|--44---2-1---1-2--------------|
E|-----0-----0------------------| (2x)

E|------------------------------|
B|------------------------------|
G|------------------------------|
D|-----------------1-2----------|
A|--44---2-1---1-2--------------|
E|-----0-----0------------------|
 |
E|--55~-------------------------|
B|--77~-------------------------|
G|--77~-------------------------|
D|--77~-------------------------|
A|--55~-------------------------|
E|--xx--------------------------|
 |
E|---5…
B|---7…
G|---7…
D|---7…
A|---5…
E|---x…

              v    ^   ^   v            v    ^    ^    v
E|------------X----X---X---5~~~---------X----X---X-----5~~~--|
B|------------X----X---X---7~~~---------X----X---X-----7~~~--|
G|------------X----X---X---7~~~---------X----X---X-----7~~~--|
D|------------X----X---X---7~~~---------X----X---X-----7~~~--|
A|------------X----X---X---5~~~---------X----X---X-----5~~~--|
E|------------X----X---X---X~~~---------X----X---X-----X~~~--|

       v    ^     ^      v                 v    ^    ^   v
E|-----X----X-----X------5~~~--------------X----X----X---5~~~--|
B|-----X----X-----X------7~~~--------------X----X----X---7~~~--|
G|-----X----X-----X------7~~~--------------X----X----X---7~~~--|
D|-----X----X-----X------7~~~--------------X----X----X---7~~~--|
A|-----X----X-----X------5~~~--------------X----X----X---5~~~--|
E|-----X----X-----X------X~~~--------------X----X----X---X~~~--|

     G          C                  D              D
But that's the other side of this life I've been leading
     G          C             D
But that's the other side of this life
Acordes para:
    Compositor: Fred NeilColaboración y revision:
    • Diego Martins

    0 comentarios

      mostrar más comentarios

      ¿Conseguiste tocar?

      0tocaron0aún no

      ¡Graba un vídeo tocando The Other Side Of This Life y envianoslo!

      00:00 / 00:00
      outros vídeos desta música
      repetirqualidadeAutomático
      Outro vídeos desta música
        00:00 / 00:00
        OK