Cifra Club

Aprenda

Meio Seu (part. Léo Santana)

João Neto e Frederico

Tablatura: Principal (guitarra)
Tom: A
[Intro] D#m  B  A#
        D#m  B  A#
        D#m  B  A#
        D#m  B  A#

E|------------------------------------------|
B|------------------------------------------|
G|------------------------------------------|
D|---8-8---8-8-8/9-9-9-9-8-6----------------|
A|-6-----6-------------------9-8------------|
E|------------------------------------------|

E|------------------------------------------|
B|------------------------------------------|
G|------------------------------------------|
D|---8-8---8-8-8/9-9-9-9-8p6h8p6h8----------|
A|-6-----6----------------------------------|
E|------------------------------------------|

E|------------------------------------------|
B|------------------------------------------|
G|------------------------------------------|
D|---8-8---8-8-8/9-9-9-9-8-6----------------|
A|-6-----6-------------------9-8------------|
E|------------------------------------------|

E|------------------------------------------|
B|------------------------------------------|
G|------------------------------------------|
D|---8-8---8-8-8/9-9-9-9-9-8----------------|
A|-6-----6----------------------------------|
E|------------------------------------------|

[Primeira Parte]

         D#m              B          A#
Eu tô mudado, xonado, pensando em quietar 
    D#m                   B              A#               
Confesso que falta um tiquim pra eu me amarrar
 D#m                      A#
Nessas horas eu começo a repensar
    D#m                     A#
Minha reputação como é que vai ficar

[Pré-Refrão]

D#m                      A#
Eu aqui em casa e meus amigos lá 
            D#m       C#      B        A#
Vendo as novinhas descer e subir, rebolar
            D#m       C#      B        A#
Vendo as novinhas descer e subir, rebolar
                             D#m             
Será que o gigante vai aguentar? 

[Refrão]
 
            B        A#                D#m
Que tal eu ser meio seu e meio da sacanagem?
    B                 A#                          D#m
Eu passo a semana na farra e volto quando der saudade
        B            A#                D#m
Que tal eu ser meio seu e meio da sacanagem?
    B                 A#                          D#m
Eu passo a semana na farra e volto quando der saudade
       B           A#              D#m
Apaixonado e desandado, metade, metade
       B           A#              D#m
Apaixonado e desandado, metade, metade
       B           A#              D#m  B  A#
Apaixonado e desandado, metade, metade

[Solo] D#m  B  A#
       D#m  B  A#  
       D#m  B  A#

E|------------------------------------------|
B|------------------------------------------|
G|------------------------------------------|
D|---8-8---8-8-8/9-9-9-9-8-6----------------|
A|-6-----6-------------------9-8------------|
E|------------------------------------------|

E|------------------------------------------|
B|------------------------------------------|
G|------------------------------------------|
D|---8-8---8-8-8/9-9-9-9-8p6h8p6h8----------|
A|-6-----6----------------------------------|
E|------------------------------------------|

E|------------------------------------------|
B|------------------------------------------|
G|------------------------------------------|
D|---8-8---8-8-8/9-9-9-9-8-6----------------|
A|-6-----6-------------------9-8------------|
E|------------------------------------------|

E|------------------------------------------|
B|------------------------------------------|
G|------------------------------------------|
D|---8-8---8-8-8/9-9-9-9-9-8----------------|
A|-6-----6----------------------------------|
E|------------------------------------------|

[Primeira Parte]

         D#m              B          A#
Eu tô mudado, xonado, pensando em quietar 
    D#m                   B              A#               
Confesso que falta um tiquim pra eu me amarrar
 D#m                      A#
Nessas horas eu começo a repensar
    D#m                     A#
Minha reputação como é que vai ficar

[Pré-Refrão]

D#m                      A#
Eu aqui em casa e meus amigos lá 
            D#m       C#      B        A#
Vendo as novinhas descer e subir, rebolar
            D#m       C#      B        A#
Vendo as novinhas descer e subir, rebolar
                             D#m             
Será que o gigante vai aguentar? 

[Refrão]
 
            B        A#                D#m
Que tal eu ser meio seu e meio da sacanagem?
    B                 A#                          D#m
Eu passo a semana na farra e volto quando der saudade
        B            A#                D#m
Que tal eu ser meio seu e meio da sacanagem?
    B                 A#                          D#m
Eu passo a semana na farra e volto quando der saudade
       B           A#              D#m
Apaixonado e desandado, metade, metade
       B           A#              D#m
Apaixonado e desandado, metade, metade
       B           A#              D#m  B  A#
Apaixonado e desandado, metade, metade

( D#m  B  A )
( D#m  B  A )

          D#m
Metade metade
       B           A#              D#m
Apaixonado e desandado, metade, metade
       B           A#              D#m  B  A#
Apaixonado e desandado, metade, metade

[Final] D#m  B  A#  D#m

E|------------------------------------------|
B|------------------------------------------|
G|------------------------------------------|
D|---8-8---8-8-8/9-9-9-9-8-6----------------|
A|-6-----6-------------------9-8------------|
E|------------------------------------------|

E|------------------------------------------|
B|------------------------------------------|
G|------------------------------------------|
D|---8-8---8-8-8/9-9-9-9-9-8----------------|
A|-6-----6----------------------------------|
E|------------------------------------------|
Compositor Bruno Sucesso / Daniel Rangel / Elan Rúbio / Marcello Henrique
Colaboración y revision:
  • Thiago Almeida
3 reproducciones
    • ½ Tom
    • A
    • Bb
    • B
    • C
    • Db
    • D
    • Eb
    • E
    • F
    • F#
    • G
    • Ab
  • Adicionar à lista

    0 comentarios

    Mostrar mais comentários

    ¿Conseguiste tocar?

    1 Tocaron 0 Ainda não

    Grave um vídeo tocando Meio Seu (part. Léo Santana) e mande pra gente!

    00:00 / 00:00
    outros vídeos desta música
    repetir qualidade Automático
    Outros vídeos desta música
    00:00 / 00:00
    Automático
    OK