Cifra Club

What a Wonderful World (guitarra Solo)

Joey Ramone

Cifrado: Principal (guitarra y guitarra eléctrica)
tono: F
Intro

 (0:00 até 0:12)
E |----------------------
B |----------------------
G |----------------------
D |----3-3---------------
A |----------3-3---------
E |-1-1---1-1------------

Verso (palm mute)
   F   A  Bb   A   G   F  C#   D
E |--------------------------------
B |--------------------------------
G |-----------------------------7--
D |-3---7---8---7---5---3---3---7--
A |-3---7---8---7---5---3---4---5--
E |-1---5---6---5---3---1----------

Refrão
   C#            Bb   C   F    C
E |-------------------------------------
B |-------------------------------------
G |-6--------------3---5---10---5-------
D |-6---3-6-3------3---5---10---5-------
A |-4--------6-4---1---3---8----3-------
E |-------------------------------------

Verso (palm mute)

Refrão
   C#             Bb  C   F   E F
E |--------------------------------------
B |--------------------------------------
G |-6--------------3---5-------9-10-(4xs)
D |-6---3-6-3------3---5---3---9-10------
A |-4--------6-4---1---3---3---7/8-------
E |------------------------1-------------

Ponte
   C    F         D   C         Bb  C
E |--------------------0------------------------
B |--------------------1------------------------
G |-5---10--(2x)---7---0--(3x)---3---5----------
D |-5---10---------7---2---------3---5----------
A |-3---8----------5---3---------1---3----------
E |--------------------0------------------------

Verso (palm mute)

Refrão final
   C#             Bb   C   F   D#   D   F    D#  D  Bb  C      C#              D#
E |-------------------------------------------------------------------------------------------------------
B |----------------(-------2x---------)-------------------------------------------------------------------
G |-6---------------3---5---10---8---7---10---8---7---3---5...---6---------------8------------------------
D |-6---3-6-3-------3---5---10---8---7---10---8---7---3---5...---6---3-6-3-------8-----8-8-8-8-8-7~~~-----
A |-4---------6-4---1---3---8----6---5---8----6---5---1---3...---4---------6-4---6---8----------------8/0-
E |-------------------------------------------------------------------------------------------------------
Compositor não encontrado.
Colaboración y revisión:
  • gui
303 vistas
    • ½ Tono
    • A
    • Bb
    • B
    • C
    • Db
    • D
    • Eb
    • E
    • F
    • F#
    • G
    • Ab
  • Agregar a la lista

    0 comentarios

    Ver todos los comentarios

    ¿Lograste tocar?

    0 Tocaron 0 Aún no

    ¡Graba un video tocando What a Wonderful World (guitarra Solo) y envíanoslo!

    00:00 / 00:00
    Outros vídeos desta música
    Repetir Calidad Automático
    Outros vídeos desta música
    00:00 / 00:00
    Automático
    OK