Cifra Club

Breakin Me

Jonny Lang

Cifrado: Principal (guitarra y guitarra eléctrica)
Selo Cifra Club: esta cifra foi revisada para atender aos critérios oficiais da nossa Equipe de Qualidade.
tono: G
G       |320003|
Gadd9   |320005|
F       |xx3213|
Dm      |xx0231|
Dsus2   |xx0230|
Dsus4   |xx0233|
Cw      |x32013| (its still just a C...so ima call it Cw, don't bug me about it)
These are for the Bridge
Cmaj7/A    |x x 7 5 5 7|
Cmaj7/Ab   |x x 6 5 5 7|
Cmaj7/G    |x x 5 5 5 7|
Dadd4      |x 5 4 0 3 x|

    

 INTRO

E|----------------|----------------|--------3--------|-------------3p0--|
B|--0h1-1------1--|--3p1-1----1----|----------3------|--0h1----1--------|
G|-----(0)-----0--|-------------0--|----0---------0--|------0h2---------|
D|----------------|----------------|------0-----0----|--3---------------|
A|--3------3------|--0-----0-------|-----------------|------------------|
E|----------------|----------------|-/3--------------|------------------|

E|-------------------|-------------------|--------3h5p3-------|-----(0)---------|
B|--0h1-1-----1------|--3p1-----1--------|----0---0------0----|------1----------|
G|--------0-----0----|------2---------0--|------0----------0--|----0-2----------|
D|-------------------|--------------2----|--------------------|------3----------|
A|--3-------3-----0--|--0-----0---0------|--------------------|------3----------|
E|-------------------|-------------------|-/3-----------------|--3--------------|

C          Am                             G
Every day I see your face I wish that I'd stayed
F                            C
Don't even know what made me run away
     Am                      G         F  
It's just the way I play the game

  C          Am                          G
Emotional is not a word I'd use to explain myself
    F                      C
But now you got me down upon my knees
   Am                       G         F    
Oh Baby please just take me back

Dm Dsus2 Dsus4 Dm Dsus2 Dm Cw              F
I  don't want  to be    in love but you're makin' me
Dm  Dsus2 Dsus4 Dm   Dsus2 Dm Cw               F
Let me    up    I've had   enough. Girl you're breakin' me

(First 4 bars of intro)    

    C          Am                    G
Now here I am, half a man standing alone
F                      C
Feeling like I lost my only chance
   Am                       G        F
At happiness when I let you go

Dm Dsus2 Dsus4 Dm Dsus2 Dm Cw          F
I  don't want  to be    alone thinkin' bout you girl
Dm   Dsus2 Dsus4 Dm    Dsus2 Dm Cw         F
I've got   no-   thin' left  to hold in my lonely world

Intro (all 8 bars) 

(Bridge I'm not too sure about this... but it sounds about right

Cmaj7/A           Cmaj7/Ab              Cmaj7/G
The first time my heart was ever touched
        Dadd4               Cmaj7/A
Was the day I lost your love
                      Cmaj7/Ab                 Cmaj7/G
I could feel it in my flesh, my flesh and blood
       Dadd4   
But my soul can only take so much

E|------------5---|-------8/10-----|
B|----------3---3-|-(3)---6/8------|
G|--------4-------|----------------|
D|--5-------------|----------------|
A|----------------|----------------|
E|----------------|----------------|


   C                Am                            G
So there it is. Why can't you give it one more try
F                      C
You and I could find a way to live
       Am                      G        F  
If you let me in just one more time

Dm Dsus2    Dsus4 Dm   Dsus2 Dm Cw        F
I  know you lost  your faith in me, but I still believe
Dm  Dsus2 Dsus4 Dm  Dsus2 Dm Cw           F
Can I     make  you un-   derstand? Can I make you see?
Dm Dsus2 Dsus4 Dm     Dsus2 Dm   Cw            F
I  am    des-  perate for   your love and it's breakin' me
Otros videos de esta canción
    1 exhibiciones
      • ½ Tono
      • A
      • Bb
      • B
      • C
      • Db
      • D
      • Eb
      • E
      • F
      • F#
      • G
      • Ab
    • Agregar a la lista

    Afinação da cifra

    Afinador online

      Ops (: Contenido disponible solo en portugués.
      OK