Cifra Club

Na Rua, Na Chuva, Na Fazenda

Kid Abelha

Cifrado: Principal (guitarra y guitarra eléctrica)
Selo Cifra Club: esta cifra foi revisada para atender aos critérios oficiais da nossa Equipe de Qualidade.
tono: E (con acordes en la forma de D) Capotraste en 2ª casa
Intro 2x: Em7 B B4

    Em7
E|------------2--2h4-----------------2-2h4-|
B|------2---5--------5--2-------2--5-------|
G|------2---2-------------4-----2--2-------|
D|------2---2-------------------2--2-------|
A|---4------4----4------------4----4---4---|
E|-2--------------------2---2--------------|
            x                       x
             B
E|-2--4--7-------4--4--4--4--4--4--4--4----|
B|-5--5----------6--6--6--6--6--6--6--6----|
G|---------------6--6--6--6--6--6--6--6----|
D|------------6-----6--6--6--6--6--6--6----|
A|----------4-------4--4--4--4--4--4--4----|
E|-----------------------------------------|
                    ↑  ↑  ↓  ↓  ↑  ↓  ↑
    B4
E|------4---4---------4---4----------------|
B|--------7-------------7------------------|
G|----6-------------6----------------------|
D|-----------------------------------------|
A|-4-------------4-------------------------|
E|-----------------------------------------|

Em               A
  Não estou disposto
                         B
A esquecer seu rosto de vez
E acho que é tão normal

Em                A
  Dizem que sou louco
                       B
Por eu ter um gosto assim
Gostar de quem não gosta de mim

Em7           A5(9)       Em7
  Jogue suas mãos para o céu
              A5(9)  D7M(9)
E agradeça se acaso tiver
                 G7M       D7M(9)
Alguém que você gostaria que
           G7M          C#m7
Estivesse sempre com você
             F#         C#m7
Na rua, na chuva, na fazenda
         F#           B  D   E B
Ou numa casinha de sapê

Em
  Não estou disposto
                         B
A esquecer seu rosto de vez
E acho que é tão normal

Em                A
  Dizem que sou louco
                       B
Por eu ter um gosto assim
Gostar de quem não gosta de mim

Em7           A5(9)       Em7
  Jogue suas mãos para o céu
              A5(9)  D7M(9)
E agradeça se acaso tiver
                 G7M       D7M(9)
Alguém que você gostaria que
           G7M          C#m7
Estivesse sempre com você
             F#         C#m7
Na rua, na chuva, na fazenda
         F#           B
Ou numa casinha de sapê

Em7           A5(9)       Em7
  Jogue suas mãos para o céu
              A5(9)  D7M(9)
E agradeça se acaso tiver
                 G7M       D7M(9)
Alguém que você gostaria que
           G7M          C#m7
Estivesse sempre com você
             F#         C#m7
Na rua, na chuva, na fazenda
         F#           B  D   E B
Ou numa casinha de sapê
00:00 / 00:00
Otros videos de esta canción
Repetir
Otros videos de esta canción
1.433.726 exhibiciones
  • Simplificar cifrado
    • ½ Tono
    • A
    • Bb
    • B
    • C
    • Db
    • D
    • Eb
    • E
    • F
    • F#
    • G
    • Ab
  • Agregar a la lista

Afinación de cifrado

Afinador online

    00:00 / 00:00
    Capítulos
    • Início
    • Tocando a música
    • Acordes da Introdução
    • Tocando Introdução
    • Ensinando Introdução
    • Acordes da Estrofe
    • Tocando Primeira Parte
    • Ensinando Estrofe
    • Ensinando Ritmo da Estrofe
    • Acordes do Refrão
    • Tocando Refrão
    • Ensinando Ritmo do Refrão
    • Encerramento
    OK