Cifra Club

Book of saturday

King Crimson

Cifrado: Principal (guitarra y guitarra eléctrica)
tono: C
              I
If I only could deceive you
              
Forgetting the game
              I
Every time I try to leave you
              
You laugh just the same
              II
'Cause my wheels never touch the road

And the jumble of lies we told

Just returns to my back to weigh me down...
              I
We lay cards upon the table

The backs of our hands
              I
And I swear I like your people

The boys in the band
              III
Reminiscences gone astray

Coming back to enjoy the fray

In a tangle of night and daylight sounds...

               IV

               V

               III

       VI

               VII
All completeness in the morning

Asleep on your side

I'll be waking up the crewmen

Banana-boat ride

She responds like a limousine

Brought alive on the silent screen

To the shuddering breath of yesterday...
                I
There's the succour of the needy

Incredible scenes

I'll believe you in the future

Your life and death dreams
                VIII
As the cavalry of despair

Takes a stand in the lady's hair

For the favour of making sweet sixteen...

You make my life and times

A book of bluesy Saturdays

And I have to chose...

          I

|--------------------------------12----10------------|
|-----------13---13---12---------13----12---(12)-----|
|-----------14---14---12---------10----10---(12)-----|
|--------------------------0-------------------------|
|---(12)---------------------------------------------|
|---(12)---------------------------------------------|

                                 II

|----12------10-----------10-------10---------------------|
|----13------------13-----12-----------12--------------8--|
|----10-------------------10-----------------------9------|
|----0---------------------0------------------10----------|
|---------------------------------------------------------|
|---------------------------------------------------------|

|----12-----10------------10-------10---------------------|
|----13--------13---------12-----------12-------------8---|
|----10-------------------10----------------------9-------|
|----0--------------------0------------------10-----------|
|---------------------------------------------------------|
|---------------------------------------------------------|

|----12-----10------------10-------10------------------------------------0-|
|----13--------13---------12-----------12-------------8--------------0-----|
|----10-------------------10----------------------9-------------10---------|
|----0--------------------0------------------10-------------12-------------|
|--------------------------------------------------------------------------|
|--------------------------------------------------------------------------|


  III


|----12------10-----------10-------10----------------------|
|----13------------13-----12-----------12---------------8--|
|----10-------------------10-----------------------9-------|
|----0--------------------0------------------10------------|
|----------------------------------------------------------|
|----------------------------------------------------------|

|----12-----10------------10-------10----------------------|
|----13--------13---------12-----------12-------------8----|
|----10-------------------10----------------------9--------|
|----0--------------------0------------------10------------|
|----------------------------------------------------------|
|----------------------------------------------------------|

|----12-----10------------10-------10------------------------------------|
|----13--------13---------12-----------12-------------8---------------12-|
|----10-------------------10----------------------9--------------11------|
|----0--------------------0------------------10-------------9------------|
|------------------------------------------------------------------------|
|------------------------------------------------------------------------|


   IV

|--------------------------------------10------------|
|--7----5-----7----5----3-----5--------10-----5---5--|
|--4----4-----4----2----2-----2--------10-----7---7--|
|--6----6-----6----4----4-----4---12---12--7--7---7--|
|----------------------------------------------------|
|----------------------------------------------------|

|---5------7------8-----12---17-----|
|-----------------------------------|
|---5------7------9-----12---17-----|
|-----------------------------------|
|-----------------------------------|
|-----------------------------------|

|---------------------------------------------------------------|
|------------8--------8---------------------8-------8-----------|
|-------9---------9-------9--------------7------7-------7-------|
|--10--------------------------10----9----------------------9---|
|---------------------------------------------------------------|
|---------------------------------------------------------------|


    V

|----------------------------------------------------0---------8-------0--------
|--------13-------12----------10------------8-----------6---------6-------6-----
|----------14--12----12---10------10-----9-----9---7-------7---------7-------7--
|-------------------------------------------------------------------------------
|---0---------------------------------------------------------------------------
|-------------------------------------------------------------------------------

|----------------------------------------------------0---------8-------0--------
|--------13-------12----------10------------8-----------6---------6-------6-----
|----------14--12----12---10------10-----9-----9---7-------7---------7-------7--
|-------------------------------------------------------------------------------
|---0---------------------------------------------------------------------------
|-------------------------------------------------------------------------------


            VI


|-------------------------------------------------------------------------|
|----7----5-----7-----5---5----3----5---------3------10---10-----5---5----|
|------4----4-----4----------2----2-----2------------10---10-----7---7----|
|--6----6-----6-----6---4--------4-----4----4---12---12---12--7--7---7----|
|-------------------------------------------------------------------------|
|-------------------------------------------------------------------------|

|------5---------7------8-----12---17-----|
|-----------------------------------------|
|---5-----5---7-----7---9-----12---17-----|
|-----------------------------------------|
|-----------------------------------------|
|-----------------------------------------|

|---------------------------------------------------------------|
|------------8--------8---------------------8-------8-----------|
|-------9---------9-------9--------------7------7-------7-------|
|--10--------------------------10----9----------------------9---|
|---------------------------------------------------------------|
|---------------------------------------------------------------|


            VII

|------------------------0-----------------------|
|------------------0-----------0-----------------|
|-------------5----------------------5-----------|
|--------7---------------------------------------|
|---0--------------------------------------------|
|------------------------------------------------|

|------------------------0-----------------------|
|------------------0-----------0-----------------|
|-------------5----------------------5-----------|
|--------7---------------------------------------|
|---0--------------------------------------------|
|------------------------------------------------|

|------------------------0-----------------------|
|------------------0-----------0-----------------|
|-------------5----------------------5-----------|
|--------7---------------------------------------|
|---0--------------------------------------------|
|------------------------------------------------|

|------------------------0-----------------------|
|------------------0-----------0-----------------|
|-------------5----------------------5-----------|
|--------7---------------------------------------|
|---0--------------------------------------------|
|------------------------------------------------|
                Begin Verse

|------------------------0-----------------------|
|------------------0-----------0-----------------|
|-------------5----------------------5-----------|
|--------7---------------------------------------|
|---0--------------------------------------------|
|------------------------------------------------|

|---------------------5-----|
|----------------6----------|
|-----------5---------------|
|------7--------------------|
|--5------------------------|
|---------------------------|

|------------------------0-----------------------|
|------------------0-----------0-----------------|
|-------------5----------------------5-----------|
|--------7---------------------------------------|
|---0--------------------------------------------|
|------------------------------------------------|

|---------------------5-----|
|----------------6----------|
|-----------5---------------|
|------7--------------------|
|--5------------------------|
|---------------------------|

|--5---5----7----0-----------|
|--6---6----8----0-----------|
|--5---5----7----5-----------|
|--7---7----9----7-----------|
|--5---5----7----0-----------|
|----------------------------|

|--5---5----7----0-----------|
|--6---6----8----0-----------|
|--5---5----7----5-----------|
|--7---7----9----7-----------|
|--5---5----7----0-----------|
|----------------------------|

|--5---5----7-------8----0--|
|--6---6----8-------8----0--|
|--5---5----7-------9----10-|
|--7---7----9--10--10----12-|
|--5---5----7---------------|
|---------------------------|


                          VIII

|----12------10-----------10-------10----------------------|
|----13------------13-----12-----------12---------------8--|
|----10-------------------10-----------------------9-------|
|----0--------------------0------------------10------------|
|----------------------------------------------------------|
|----------------------------------------------------------|

|----12-----10------------10-------10----------------------|
|----13--------13---------12-----------12-------------8----|
|----10-------------------10----------------------9--------|
|----0--------------------0------------------10------------|
|----------------------------------------------------------|
|----------------------------------------------------------|

|----12-----10------------10-------10------------------------------------|
|----13--------13---------12-----------12-------------8---------------12-|
|----10-------------------10----------------------9--------------11------|
|----0--------------------0------------------10-------------9------------|
|------------------------------------------------------------------------|
|------------------------------------------------------------------------|

|--------9-------9--------9----------7------7-----7-----10----------|
|------9-------9--------9--------7------7------7--------10-----5--5-|
|----9------9--------9--------7-----7------7------------10-----7--7-|
|--9------9-------9-------7-----7------7------------12--12--7--7--7-|
|-------------------------------------------------------------------|
|-------------------------------------------------------------------|

|------5---------7------8-----12---17-----|
|-----------------------------------------|
|---5-----5---7-----7---9-----12---17-----|
|-----------------------------------------|
|-----------------------------------------|
|-----------------------------------------|

|--------------------------------------------------------------5-|
|------------8--------8---------------------8-------8----------5-|
|-------9---------9-------9--------------7------7-------7------5-|
|--10--------------------------10----9----------------------9--5-|
|--------------------------------------------------------------7-|
|----------------------------------------------------------------|
00:00 / 00:00
Otros videos de esta canción
Repetir
Otros videos de esta canción
Composición de John Wetton / Richard Palmer-James / Robert Fripp
278 exhibiciones
    • ½ Tono
    • A
    • Bb
    • B
    • C
    • Db
    • D
    • Eb
    • E
    • F
    • F#
    • G
    • Ab
  • Agregar a la lista
    00:00 / 00:00
    OK