Cifra Club

Lark's Tongues in Aspic (Part III)

King Crimson

Tablatura: Principal (guitarra)
Tom: G
Here's the quiet guitar duet section from the middle of Lark's Tongues in 
Aspic Part III, from King Crimson's 'Three of a Perfect Pair.' My ears 
aren't great, so if anyone can improve, please let me know!

Toby

    --------------------------------------------------13-------------- 
    ------------------------------14------13------12----------13------
GTR ----------13------12------12------11------10----------11----------
 1  ------12------11------10------------------------------------------
    --10-------------------------------------------------------------- 
    ------------------------------------------------------------------

    --------------------------------------------------10-------------- 
    ------------------------------11------10-------9----------10------
GTR ----------10-------9-------9-------8-------7-----------8----------
 2  -------9-------8-------7------------------------------------------
    ---7-------------------------------------------------------------- 
    ------------------------------------------------------------------

*************************************************************************

    ----------15----------
    ------14------14------
GTR --12--------------12--
 1  ----------------------
    ----------------------
    ----------------------

    ---------12-----------
    -----11------11-------
GTR --9--------------9----
 2  ----------------------
    ----------------------
    ----------------------

*************************************************************************

    --14------13------------------------------------------------------ 
    ------13------12------13------14----------------------------------
GTR ------------------10------11------12------12------13--------------
 1  --------------------------------------10------11------12----------
    ------------------------------------------------------------------ 
    ------------------------------------------------------------------

    --11------10------------------------------------------------------ 
    ------10-------9------10------11----------------------------------
GTR -------------------7-------8-------9-------9------10--------------
 2  ---------------------------------------7-------8-------9----------
    ------------------------------------------------------------------ 
    ------------------------------------------------------------------

*************************************************************************

    -----------------------------------10--------11------------------- 
    ------------------11--------10---------9---------10---------------
GTR --10--------9---------9---------8---------7-----------------------
 1  ------9--------8---------7----------------------------------------
    ---------7-------------------------------------------------------- 
    ------------------------------------------------------------------

    ------------------------------------------7----------------------- 
    -------------------------8------7------6----------7---------------
GTR ---------7-----6------6------5------4---------5-------------------
 2  ------6-----5------4----------------------------------------------
    ---4-------------------------------------------------------------- 
    ------------------------------------------------------------------

*************************************************************************

    --12-------------12--11------10----------------------------------- 
    ------11-----11----------10------9-----10-----11------------------
GTR ----------9-------------------------7------8------9-----9-----10--
 1  -----------------------------------------------------7-----8-----9
    ------------------------------------------------------------------ 
    ------------------------------------------------------------------

    ----------9-----------8-------7----------------------------------- 
    -------8------8-----------7------6------7------8------------------
GTR ---6--------------6-----------------4------5------6-----6------7--
 2  -----------------------------------------------------4-----5-----6
    ------------------------------------------------------------------ 
    ------------------------------------------------------------------

*************************************************************************

    ---------------------------------7--------8-----------------------
GTR ------------------8--------7--------6--------7--------------------
 1  --7--------6---------6--------5--------4--------------------------
    -----6--------5---------4----------------------------------------- 
    --------4--------------------------------------------------------- 
    ------------------------------------------------------------------

    ---------------------------------------4-------------------------- 
    ------------------------5-----4-----3--------4--------------------
GTR --------4-----3------3-----2-----1--------2-----------------------
 2  -----3-----2------1-----------------------------------------------
    --1--------------------------------------------------------------- 
    ------------------------------------------------------------------

*************************************************************************

    --9-----------9--8-----7------------------------------------------ 
    -----8-----8--------7-----6-----7-----8---------------------------
GTR --------6--------------------4-----5-----6-----6-----7------------
 1  --------------------------------------------4-----5-----6---------
    ------------------------------------------------------------------ 
    ------------------------------------------------------------------

    --------6--------5-----4------------------------------------------ 
    -----5-----5--------4-----3-----4-----5---------------------------
GTR --3-----------3--------------1-----2-----3-----2-----3------------
 2  --------------------------------------------1-----2-----3---------
    ------------------------------------------------------------------ 
    ------------------------------------------------------------------

END.
reproducciones 133
Acordes para:
    Composição: Adrian Belew / Bill Bruford / Robert Fripp / Tony Levin Colaboración y revision:
    • Lucass Santos

    0 comentarios

    mostrar más comentarios

    ¿Conseguiste tocar?

    0 tocaron 0 aún no

    ¡Graba un vídeo tocando Lark's Tongues in Aspic (Part III) y envianoslo!

    00:00 / 00:00
    outros vídeos desta música
    repetir qualidade Automático
    Outros vídeos desta música
    00:00 / 00:00
    Automático
    OK