Cifra Club

Toxic Girl

Kings Of Convenience

Cifrado: Principal (guitarra y guitarra eléctrica)
tono: A
E|-0--0--0-----------------|
B|-0--0--0-----------------|
G|-8--6--4-----------------|
D|-9--7--5-----------------|
A|-7--5--3-----------------|
E|-0--0--0-----------------|

Melody guitar part:
Main riff:

E|---7--7---4----4--------------------------------------|
B|-------5h7-7h5--5--5----------------------------------|
G|4---4------------6------------------------------------|
D|------------------------------------------------------|
A|------------------------------------------------------|
E|------------------------------------------------------|

E|-----------------------------------------------------|
B|--12--12--9------9-----------------------------------|
G|-------9h11--11-9--9---9-----------------------------|
D|9-----------------11---------------------------------|
A|-----------------------------------------------------|
E|-----------------------------------------------------|
To play as the original recording, you must use your first finger as a bar.

Guitar in the verse 1(i don't know if words are correct)

"in your life ...
E|--7--7---7--7---------------------0--0--0--0------------0-----0-------|
B|-7--7--77--7--7--8--8---8---8---8----10---10---10--10---4-4--4-4-4--4-|
G|7--7--77--7--7--9--9---9---9---9---11--11---11---11----4------4-------|
D|-------------10--10--10--10--10--12---12------------------------------|
A|----------------------------------------------------------------------|
E|----------------------------------------------------------------------|

Guitar solo
E|-------------------*12-|-------------------------------------0---0---0------0--------0--|
B|-----------------*12---|------------------------------------------------------7---------|
G|-----------------------|----------11-----9----------------8---8---8-----8-----8----8----|
D|9--9----910-10-9-------|9-9----910-10-9---9--9\7--7\6--6---6---6----6--6--6-----6-----6-|
A|-----------------------|----------------------------------------------------------------|
E|-----------------------|----------------------------------------------------------------|

There's another version to play this simply solo,i don't have tabbed it 'cause you can find it 
Turnaround the notes of the first version of the main riff.it's difficult but nice to wiew!!

Guitar in the verse 2 
"cos you believe at heart that if you...
...can"...         "show to her..."   "she'll change.."     
E|-10-10-10-10-10-10--7--7----7--7----5--5--5--5--5---0-0-0-0--0--0----|
B|--8--8-----8--8------8--8--8--8--8---5--5--5--5-----9-9---9--9-------|
G|11-11-11-11-11-11---9--9--9--9--9---7--7-7---7--7---8-8-8-8--8-8-----|
D|---------------------------------------------------------------------|
A|---------------------------------------------------------------------|
E|---------------------------------------------------------------------|

 "a-gain"
E|7--5-------|
B|7--5-------|
G|7--5-------|
D|-----------|
A|-----------|
E|-----------|

And then...

E|---------------------------|
B|---------------------------|
G|9-9-8-8-6-6\2-2-1-1-1-1----|
D|---------------------------|
A|---------------------------|
E|---------------------------|

  "you believe at heart that if you can..."
E|--3-----3---------5-----5-----------------|
B|-0--0-0-0--0-0---0--0-0-0--0-0------------|
G|5-5--5-5-5--5---7-7--7-7-7--7-------------|
D|------------------------------------------|
A|------------------------------------------|
E|------------------------------------------|
  (3x)

...and then:
E|---0------0------0--0--000----------------|
B|-4-4--4--4-4--4--4-4-4-4-444--------------|
G|4------4-------4----4-444-----------------|
D|------------------------------------------|
A|------------------------------------------|
E|------------------------------------------|

00:00 / 00:00
Otros videos de esta canción
Repetir
Otros videos de esta canción
Composición de Kings of Convenience
235 exhibiciones
    • ½ Tono
    • A
    • Bb
    • B
    • C
    • Db
    • D
    • Eb
    • E
    • F
    • F#
    • G
    • Ab
  • Agregar a la lista
    00:00 / 00:00
    OK