Cifra Club

Tantas Escaleras

Las Pastillas Del Abuelo

Cifrado: Principal (guitarra y guitarra eléctrica)
tono: C
[Intro]

E|----------------------------------------------|
B|---------------------------0------------------|
G|-------------------------0--------------------|
D|-------0-------------0------------------------|
A|-0-2-3---3-2-0-----0--------------------------|
E|---------------3-1-----3----------------------|

E|----------------------------------------------|
B|---------------------------0------------------|
G|-------------------------0--------------------|
D|-------0-------------0------------------------|
A|-0-2-3---3-2-0-----0--------------------------|
E|---------------3-1-----3----------------------|

E|----------------------------------------------|
B|---------------------------0------------------|
G|-------------------------0--------------------|
D|-------0-------------0------------------------|
A|-0-2-3---3-2-0-----0--------------------------|
E|---------------3-1-----3----------------------|

E|----------------------------------------------|
B|---------------------------0------------------|
G|-------------------------0--------------------|
D|-------0-------------0------------------------|
A|-0-2-3---3-2-0-----0--------------------------|
E|---------------3-1-----3----------------------|

G
Tantas escaleras
        F                            Am
Y nunca aprendí a bajarme sin que me dieras
                Em
El voto de confianza
G
No tengo mas biberón
        F
Y el chupete quedo en otro lado
                 Am
¿no ves que me caigo?
            Em
Agarrame la mano

Bm                                   Am
Cualquier cosa puede ser mas inoportuna
                          Em
Que vos al teléfono de mi inconstancia
                  D
Por mucho que nos conste

Am
Si una bola no gira
             C
No sirve pa' nada porque esta atascada
F
Mi amor

G                           F
Sigo siendo eso que siempre buscaste

Hasta que lo tuviste
                Am
Y hoy lo queres tanto
               Em
Que te encanta tenerlo

G                            F
Y hoy estoy tan canabico corazón
                                         Am
Que no le encuentro el pelo al huevo que tengo
              Em
Delante de mi vista

Bm
Quien te dijo que nadie llegaba
Am
Después de estos dos que golpearon la puerta
Em                         D
Y no saben a que fiesta vinieron

Am
Ves que es bola y no gira
             C
No sirve pa' nada porque esta atascada
F
Mi amor

[Solo] G  F  Am Em

G
No todo orgasmo acaba bien amor
F
No todo lo que brilla es oro
               Am
No quedo ni el loro es esta habitación
               Em
Que nunca alquilamos

G
Nos equivocamos de subte
F
Y terminamos en cualquier lado
Am
Destino taimado
                     Em
Y siempre le hacemos caso

Bm                          Am
Tanto beso suicidándose por ahí
                                     Em
En el rincón de una boca que no lo sepulta
             D
Pero sabe de tierra

Am
Insisto, si no gira no es bola
               C
O es bola atascada y no sirve pa' nada
F
Mi amor
00:00 / 00:00
Otros videos de esta canción
Repetir
Otros videos de esta canción
Composición de Las Pastillas Del Abuelo
Colaboración y revisión:
  • jonathan priego
  • Pablo Meister
2.147 vistas
    • ½ Tono
    • A
    • Bb
    • B
    • C
    • Db
    • D
    • Eb
    • E
    • F
    • F#
    • G
    • Ab
  • Agregar a la lista

    0 comentarios

    Ver todos los comentarios

    ¿Lograste tocar?

    2 Tocaron 0 Aún no

    ¡Graba un video tocando Tantas Escaleras y envíanoslo!

    00:00 / 00:00
    OK