Cifra Club

Pindaíba

Luan Estilizado

Cifrado: Principal (guitarra y guitarra eléctrica)
tono: C
Intro: C Am Dm Fm G


Solo:
E|--7-8-7--------7-8-7-8-7------------------|
B|--------8----------------8----------------|
G|----------9----------------9--------------|
D|------------------------------------------|
A|------------------------------------------|
E|------------------------------------------|

E|--7-8-7--------7-8-7-8-7-8-12-------------|
B|--------8---------------------------------|
G|----------9-------------------------------|
D|------------------------------------------|
A|------------------------------------------|
E|------------------------------------------|

E|--12-13-12-----------12-13-12-13-12-------|
B|-----------13-----------------------13----|
G|--------------14-----------------------14-|
D|------------------------------------------|
A|------------------------------------------|
E|------------------------------------------|

E|--16-15-13----15--------------------------|
B|-----------13-----------------------------|
G|------------------------------------------|
D|------------------------------------------|
A|------------------------------------------|
E|------------------------------------------|


Primeira Parte:
C
Chegou sem avisar, entrou sem bater
Am
Me fez acreditar, que eu era tudo pra você
Dm
Levou as suas coisas lá pra casa
       G                       G7
Quando vi não era dono mais de nada

              C
Nem do meu coração
                       G/B           Am
Nem se importou com o tamanho do estrago
                           Dm
Só esperou virar união estável
                      G
Pra me mandar a inntimação


REFRÃO 2X
                 C
Me deixou na pindaíba, só bebendo pinga
            Am
Ouvindo uns modão, que não alisa o coração
                      Dm
E a sentença mais sofrida
      F                          G
Seu juiz, é que ainda amo essa bandida

 SOLO C Am Dm Fm G
 
Repete Primeira Parte

                 C
Me deixou na pindaíba, só bebendo pinga
            Am
Ouvindo uns modão, que não alisa o coração
                      Dm
E a sentença mais sofrida
      F                          G
Seu juiz, é que ainda amo essa bandida

                C
Me deixou na pindaíba, só bebendo pinga
            Am
Ouvindo uns modão, que não alisa o coração
                      Dm
E a sentença mais sofrida
      F                          G     A
Seu juiz, é que ainda amo essa bandida


                 D
Me deixou na pindaíba, só bebendo pinga
             Bm
Ouvindo uns modão, que não alisa o coração
                    Em
E a sentença mais sofrida
      G                          A
Seu juiz, é que ainda amo essa bandida

Final: ( D Bm Gm A7 )
Composición de Matheus Aleixo / Tallys Pacheco / Paulo Vitor
Colaboración y revisión:
  • Juninho Araujo
  • João Helder
  • Vittor Sabino
356 vistas
    • ½ Tono
    • A
    • Bb
    • B
    • C
    • Db
    • D
    • Eb
    • E
    • F
    • F#
    • G
    • Ab
  • Agregar a la lista

    0 comentarios

    Ver todos los comentarios

    ¿Lograste tocar?

    5 Tocaron 0 Aún no

    ¡Graba un video tocando Pindaíba y envíanoslo!

    00:00 / 00:00
    Otros videos de esta canción
    Repetir Calidad Automático
    Otros videos de esta canción
    00:00 / 00:00
    Automático
    OK