Cifra Club

Rayando El Sol

Maná

Cifrado: Versão 7 (guitarra y guitarra eléctrica)
tono: C
INTRO

E|---3------------2------------0------------0---------------|
B|---0-----0--1---3-----0--1---0-----0--1---1-----0--1------|
G|---0---0--------2---0--------0---0--------0---0-----------|
D|---0------------0------------2------------2---------------|
A|---2------------0------------2------------3---------------|
E|---3------------0------------0------------0---------------|

E|---3-----------2-----------0-----------2-----------0-----3|
B|---0----0--1---3----0--1---1----0--1---3----0--1---0--0---|
G|---0--0--------4--0--------0--0--------2--0--------0------|
D|---0-----------4-----------2-----------0-----------2------|
A|---2-----------2-----------3-----------0-----------2------|
E|---3-----------------------0-----------0-----------0------|

Rayando el sol
rayando por ti
esta pena me duele
y me quema sin tu amor

no me has llamado estoy desesperado
son muchas lunas las que te he llorado

rayando el sol (oh eh ooh)
deseperacion
es mas facil llegar al sol
que a tu corazon

me muero por ti (oh eh ooh)
viviendo sin ti
y no aguanto me duele tanto estar asi
rayando el sol

G  O 1

E|----10/12---12-10---------------------------------|
B|------------------13-12--10-----------------------|
G|----------------------------12---7/9--9vvvvvv-----|
D|--------------------------------------------------|
A|--------------------------------------------------|
E|--------------------------------------------------|

a tu casa yo fui
y no te encontre
en el parque en la plaza
en el cine yo te busque

te tengo atrapada
entre mi piel y mi alma
mas ya no puedo tanto
y quiero estar junto a ti

rayando el sol (oh eh ooh)
deseperacion
es mas facil llegar al sol
que a tu corazon

me muero por ti (oh eh ooh)
viviendo sin ti
y no aguanto me duele tanto estar asi
rayando el sol

E|--12*---12-10-8--10/12---12*---12-10-------------------------------------|
B|-------------------------------------10/5---7--7*------------------------|
G|-------------------------------------------------------------------------|
D|-------------------------------------------------------------------------|
A|-------------------------------------------------------------------------|
E|-------------------------------------------------------------------------|

E|-------------------------------7-5---------------------------------------|
B|--7-7-7/5------------------7-7-----------------13-13---------------------|
G|----------7--4-----4-4-7-7-----------9-9-12-12-------12-9----------------|
D|----------------7--------------------------------------------------------|
A|-------------------------------------------------------------------------|
E|-------------------------------------------------------------------------|

E|-----------------15-14---------12*--14-12/15-----------------------------|
B|--------------15-------15------------------------------------------------|
G|--11-11-14-14--------------14--------------------------------------------|
D|-------------------------------------------------------------------------|
A|-------------------------------------------------------------------------|
E|-------------------------------------------------------------------------|

E|------10-8---------10/12--1--12*-----------------------------------------|
B|--5/7--------------------------------------------------------------------|
G|-------------------------------------------------------------------------|
D|-------------------------------------------------------------------------|
A|-------------------------------------------------------------------------|
E|-------------------------------------------------------------------------|

E|--10/12----10----12/14---17---14---12------------------------------------|
B|-------------------------------------------------------------------------|
G|-------------------------------------------------------------------------|
D|-------------------------------------------------------------------------|
A|-------------------------------------------------------------------------|
E|-------------------------------------------------------------------------|

rayando el sol (oh eh ooh)
deseperacion
es mas facil llegar al sol
que a tu corazon

rayando por ti (rayando)
uuuuh(rayando)
rayando rayando el sol(rayando)
ay ay ay ay ay ay ay
rayando el sol (rayando) etc...

v: vibrato
*: bend up


bueno pues aqui les dejo esta nueva tablatura
saludos a Fco i madero coah y a la sacundaria
federal
Composición de Alex / Fher
3 vistas
    • ½ Tono
    • A
    • Bb
    • B
    • C
    • Db
    • D
    • Eb
    • E
    • F
    • F#
    • G
    • Ab
  • Agregar a la lista

    0 comentarios

    Ver todos los comentarios

    ¿Lograste tocar?

    0 Tocaron 0 Aún no

    ¡Graba un video tocando Rayando El Sol y envíanoslo!

    00:00 / 00:00
    Outros vídeos desta música
    Repetir Calidad Automático
    Outros vídeos desta música
    00:00 / 00:00
    Automático
    OK