Cifra Club

Loco (Tu Forma de Ser)

Los Auténticos Decadentes

Cifrado: Principal (guitarra y guitarra eléctrica)
tono: C
[Intro] G  Bm  Am  D 

[Primeira Parte]

    G
Te vi llegar del brazo de un amigo
           Bm
Cuando entraste al bar y te caiste
              Am
Al piso me tiraste el pinguino
                          D
Me tiraste el sifon estallaron los

Vidrios de mi corazon

    G
Te vi bailar brillando con tu ausencia
        Bm
Sin sentir piedad chocando con las mesas
       Am
Te burlaste de todos te reiste de mi
      D
Mis amigos se escaparon de vos

[Refrão]

                  G
Y a mi me volvio loco tu forma de ser
                Bm
A mi me volvio loco tu forma de ser
      Am                        D
Te egoismo y tu soledad son estrellas
        
En la noche de la mediocridad

    G
Me volvio loco tu forma de ser
                Bm
A mi me volvio loco tu forma de ser
      Am                     D
Te egoismo y tu soledad son joyas en
 
El barro de la mediocridad

[Solo] G  Bm  Am  D
       G  Bm  Am  D
       G  Bm  Am  D
       G  Bm  Am  D

E|-10-10-10--8--8--8---7-7-7--7-8--7-8--10--|
B|-12-12-12--10-10-10--8-8-8--8-10-8-10-12--|
G|------------------------------------------|
D|------------------------------------------|
A|------------------------------------------|
E|------------------------------------------|

E|-10-10-10-12-10--10-9--8--8--8--8---7--5--|
B|-12-12-12-12-12--12-11-10-10-10-10--8--7--|
G|------------------------------------------|
D|------------------------------------------|
A|------------------------------------------|
E|------------------------------------------|

E|-5--5-5-3-2-2-2-3-3-3--5------------------|
B|-7--7-7-5-3-3-3-5-5-5--7------------------|
G|------------------------------------------|
D|------------------------------------------|
A|------------------------------------------|
E|------------------------------------------|

[Segunda Parte]

 G
Viniste a mi tomaste de mi copa me
    Bm        
Sonreiste asi nadando en tu demencia
      Am
No sabia que hecer te trate de besar
      D
Me pegaste un sopapo y te pusiste a llorar

[Refrão]

                  G
Y a mi me volvio loco tu forma de ser
                Bm
A mi me volvio loco tu forma de ser
      Am                        D
Te egoismo y tu soledad son estrellas
        
En la noche de la mediocridad

    G
Me volvio loco tu forma de ser
                Bm
A mi me volvio loco tu forma de ser
      Am                     D
Te egoismo y tu soledad son joyas en
                        G
El barro de la mediocridad
Composición de Jorge Serrano
Colaboración y revisión:
33.145 vistas
    • ½ Tono
    • A
    • Bb
    • B
    • C
    • Db
    • D
    • Eb
    • E
    • F
    • F#
    • G
    • Ab
  • Agregar a la lista

    0 comentarios

    Ver todos los comentarios

    ¿Lograste tocar?

    12 Tocaron 3 Aún no

    ¡Graba un video tocando Loco (Tu Forma de Ser) y envíanoslo!

    00:00 / 00:00
    Outros vídeos desta música
    Repetir Calidad Automático
    Outros vídeos desta música
    00:00 / 00:00
    Automático
    OK