Cifra Club

Loco (Tu Forma de Ser)

Los Auténticos Decadentes

Cifrado: Principal (guitarra y guitarra eléctrica)
tono: A
[Intro] A  C#m  Bm  E
        A  C#m  Bm  E

[Primeira Parte]

    A
Te vi llegar del brazo de un amigo
           C#m
Cuando entraste al bar y te caiste
              Bm
Al piso me tiraste el pinguino
                          E
Me tiraste el sifon estallaron los

Vidrios de mi corazon

    A
Te vi bailar brillando con tu ausencia
        C#m
Sin sentir piedad chocando con las mesas
       Bm
Te burlaste de todos te reiste de mi
      E
Mis amigos se escaparon de vos

[Refrão]

                  A
Y a mi me volvio loco tu forma de ser
                C#m
A mi me volvio loco tu forma de ser
      Bm                        E
Te egoismo y tu soledad son estrellas

En la noche de la mediocridad

           A
Me volvio loco tu forma de ser
                C#m
A mi me volvio loco tu forma de ser
      Bm                     E
Te egoismo y tu soledad son joyas en

El barro de la mediocridad

[Solo] A  C#m  Bm  E

E|-12-12-12-10-10-10--9--9--9---9-10--9-10--|
B|-14-14-14-12-12-12-10-10-10--10-12-10-12--|
G|------------------------------------------|
D|------------------------------------------|
A|------------------------------------------|
E|------------------------------------------|

E|-12-12-12-14-12--12h14p12-11h13p11--------|
B|-14-14-14-14-14--14-------13--------------|
G|------------------------------------------|
D|------------------------------------------|
A|------------------------------------------|
E|------------------------------------------|

E|-10-10-10--9-7---7-7-5--------------------|
B|-12-12-12-10-9---9-9-7--------------------|
G|------------------------------------------|
D|------------------------------------------|
A|------------------------------------------|
E|------------------------------------------|

E|-4-4-4-5-5-5-7----------------------------|
B|-5-5-5-7-7-7-9----------------------------|
G|------------------------------------------|
D|------------------------------------------|
A|------------------------------------------|
E|------------------------------------------|

( A  C#m  Bm  E )

[Segunda Parte]

   A
Viniste a mi tomaste de mi copa me
    C#m        
Sonreiste asi nadando en tu demencia
      Bm
No sabia que hecer te trate de besar
      E
Me pegaste un sopapo y te pusiste a llorar

[Refrão]

                  A
Y a mi me volvio loco tu forma de ser
                C#m
A mi me volvio loco tu forma de ser
      Bm                        E
Te egoismo y tu soledad son estrellas

En la noche de la mediocridad

           A
Me volvio loco tu forma de ser
                C#m
A mi me volvio loco tu forma de ser
      Bm                     E
Te egoismo y tu soledad son joyas en
                        A
El barro de la mediocridad

( A  C#m  Bm  E )
( A  C#m  Bm  E )

                  A
Y a mi me volvio loco tu forma de ser
                C#m
A mi me volvio loco tu forma de ser
      Bm                        E
Te egoismo y tu soledad son estrellas

En la noche de la mediocridad

           A
Me volvio loco tu forma de ser
                C#m
A mi me volvio loco tu forma de ser
      Bm                     E
Te egoismo y tu soledad son joyas en
                        A
El barro de la mediocridad

[Final] A  C#m  Bm  E
        A  C#m  Bm  E
        A  C#m  Bm  E  A
00:00 / 00:00
Otros videos de esta canción
Repetir
Otros videos de esta canción
Composición de Jorge Serrano
63.337 exhibiciones
    • ½ Tono
    • A
    • Bb
    • B
    • C
    • Db
    • D
    • Eb
    • E
    • F
    • F#
    • G
    • Ab
  • Agregar a la lista
    00:00 / 00:00
    OK