Cifra Club

Heard It In A Love Song Intro

Marshall Tucker Band

Cifrado: Principal (guitarra y guitarra eléctrica)
tono: D
Okay, this is a pretty accurate tab for the flute intro. You may want to listen to the 
a few times to get the rhythm down though. Enjoy!

e|---------------------------------------------------------------------------|
B|-15-12----12------------------12-----------12-12----12---------------------|
G|-------14----11-------11-14-11----11-14-----------14----11-----------------|
D|----------------14-12--------------------------------------14-12-14-12-14--|
A|---------------------------------------------------------------------------|
E|---------------------------------------------------------------------------|

e|---------------------------------------------------------------------------|
B|------------------15-15-15-14-14-14-12---------12-15-15----12--------------|
G|-11-12-11------------------------------14---14----------14----14-----------|
D|----------12---------------------------------------------------------------|
A|-------------12------------------------------------------------------------|
E|---------------------------------------------------------------------------|

e|---------------------------------------------------------------------------|
B|---------------------------------------------------------------------------|
G|----11-12-14-12-11---------------------------------------------------------|
D|-14----------------12-------12-------12------------------------------------|
A|----------------------12-14----12-14---------------------------------------|
E|---------------------------------------------------------------------------|
00:00 / 00:00
Otros videos de esta canción
Repetir
Otros videos de esta canción
Composición de Toy Caldwell
42 exhibiciones
    • ½ Tono
    • A
    • Bb
    • B
    • C
    • Db
    • D
    • Eb
    • E
    • F
    • F#
    • G
    • Ab
  • Agregar a la lista
    00:00 / 00:00
    OK