Cifra Club

Heard It In A Love Song Solo

Marshall Tucker Band

Cifrado: Principal (guitarra y guitarra eléctrica)
tono: D
Transcribed By:    SRVfan2004
My Email:          *
Parts:             Piano Tablature
Missing:           flute and guitar parts but i will tab those
                   separately.

here is the piano solo for this song for guitar, it doesnt sound
as refined but good nonetheless...this is my first tab so bare
with me.

E-------10-12-10--12h14-17-14-17-19-17--14h17-14-------------|
B-10-12------------------------------------------17-15-------|
G------------------------------------------------------------|
D------------------------------------------------------------|
A------------------------------------------------------------|
E------------------------------------------------------------|

E|------------------------------------------14----------------|
B|-12-14-12-14~-10-10------------15---15-17-19-17-15-17-15----|
G|--------------------11-9----16----16---------------------16-|
D|-------------------------12---------------------------------|
A|------------------------------------------------------------|
E|------------------------------------------------------------|

E|--------------------------------14----17-19-17-17-14-12-10-|
B|-15----15-----------------------19-------------------------|
G|----16----16-14-11------7---7------14----------------------|
D|--------------------7-9---9---9----------------------------|
A|-----------------------------------------------------------|
E|-----------------------------------------------------------|

E|-------------------------------------14-12----12-----------|
B|-14-12-14-12-10-10----12-14-15-12-15-19----15--------------|
G|--------------------14-----------------------------14------|
D|-------------------------------------------------0----12---|
A|-----------------------------------------------------------|
E|-----------------------------------------------------------|

E|-----------------------------------------------------------|
B|-------15----12----19--------------------------------------|
G|-12-11----14----14-----------------------------------------|
D|-----------------------------------------------------------|
A|-----------------------------------------------------------|
E|-----------------------------------------------------------|

E-------10-12-10---------------------------------------------|
B-10-12------------------------------------------------------|
G------------------------------------------------------------|
D------------------------------------------------------------|
A------------------------------------------------------------|
E------------------------------------------------------------|
00:00 / 00:00
Otros videos de esta canción
Repetir
Otros videos de esta canción
Composición de Toy Caldwell
46 exhibiciones
    • ½ Tono
    • A
    • Bb
    • B
    • C
    • Db
    • D
    • Eb
    • E
    • F
    • F#
    • G
    • Ab
  • Agregar a la lista
    00:00 / 00:00
    OK