Cifra Club

Chloe Dancer Crown Of Thorns

Mother Love Bone

Cifrado: Principal (guitarra y guitarra eléctrica)
Selo Cifra Club: esta cifra foi revisada para atender aos critérios oficiais da nossa Equipe de Qualidade.
tono: Em
 Chloe Dancer - played on piano but can be played on guitar
E|--------------0-------------0-----0-----------0--------------0--------|
B|----------3-----3---3-----3---------3-----3-----3---3----3-----3---3--|
G|--------2---2-----2-----2-------2-------0---0-----0----0---0-----0----|
D|------------------------------0---------------------------------------|
A|-----0----------------2-----------------------------------------------|
E|--------------------------------------3---------------3---------------|

 Crown of Thorns
 [Verse Main riff]
E|-------5-----3-----5-------3---|
B|-------5-----3-----5-------3---|
G|-----7-6---5-4---7-6---5-4-4---|
D|-----7-7---5-5---7-7---5-5-5---|
A|-----5-5---3-3---5-5---3-3-5---|
E|---------------------------3---|

[Chorus]
E|-----5----5----3----3----5----5--3-3-3---|
B|-----5----5----3----3----5----5--3-3-3---|
G|---7-6-76-6--5-4-54-4--7-6-76-6--5-4-4---|
D|---7-7-77-7--5-5-55-5--7-7-77-7--5-5-5---|
A|---5-5-55-7--3-3-33-5--5-5-55-7--3-3-5---|
E|----------5---------3---------5------3---|

 [Pre-solo]
E|-----8------3-0--|
B|-----10-----5-2--|
G|---7-10--/5-5-2--|
D|---7-10--/5-5-2--|
A|---5-8---/3-3-0--|
E|-----------------|

[Solo]
i dont know the solo or the backing for it.

[Bridge]
E|---5-5--8--8----5----3-0---|
B|---7-7--10-10---7----5-2---|
G|---7-7--10-10--77--5x5-2---|
D|---7-7--10-10--77--5x5-2---|
A|---5-5--8--8---55--3x3-0---|
E|---------------------------|

[Structure]
[Intro](Chloe dancer)
[Verse]
[Pause]
[Verse]
[Chorus]
[Verse]
[Chorus]
[Pre-solo]
[Solo]
[Chorus]
[Bridge] (fades out)
00:00 / 00:00
Otros videos de esta canción
Repetir
Otros videos de esta canción
31 exhibiciones
    • ½ Tono
    • Am
    • Bbm
    • Bm
    • Cm
    • C#m
    • Dm
    • Ebm
    • Em
    • Fm
    • F#m
    • Gm
    • G#m
  • Agregar a la lista

Afinación de cifrado

Afinador online

    00:00 / 00:00
    OK