Cifra Club

Mensagem de Amor

Os Paralamas do Sucesso

Tab de bajo: Principal
|--------------------------------------
|--------------------------------------
|--------------------------------------
|-0-------0--------0--------0-------------------------------------

|--------------------------------------
|--------------------------------------
|----------------5h7--------------------5h7-----
|-00-000-000-000-----00-000-000-000-000-------------------------------


|--------------------------------------
|--------------------------------------
|---7777777777777777777777777777-3333333333333333333------2-2-4-4-2-2-----66----66--
|----------------------------------------------------0--0-------------3-3----33----33-

|--------------------------------------
|--------------------------------------
|--------------5h7-------------3333333333333333---------------5h7--------------333333
|-000000000000-----00000000000------------------000000000000------00000000000-----

|--------------------------------------
|--------------------------------------
|---------5---5/7--------------------------------
|-0---------0----------------------------------

|--------------------------------------
|--------------------------------------
|---77777777777777777-3333333333333333333----22-44-222------66--66---66
|-----------------------------------------0-0----------65433--33---33

|--------------------------------------
|--------------------------------------
|--------------5h7-------------3333333333333333---------------5h7--------------333333
|-000000000000-----00000000000------------------000000000000------00000000000-----





|--------------------------------------
|--------------------------------------  2x
|------7---7-----------------------------
|-0-----00---77--------------------------------



|--------------------------------------
|--------------------12/14------------------
|----------------5/7----------------------
|-00-000-000-000-------------------------------------


|--------------------------------------
|--------------------------------------
|---7777777777777777777777777777-3333333333333333333------2-2-4-4-2-2-----66----66--
|----------------------------------------------------0--0-------------3-3----33----33-


|--------------------------------------
|--------------------------------------
|--------------5h7-------------3333333333333333---------------5h7--------------333333
|-000000000000-----00000000000------------------000000000000------00000000000-----


|--------------------------------------
|------------------2-5-2--------------------
|------2-2-0-2-3-5--------------------------------- 5000x
|-0--0--------------------------------------



_______________________________________________________
Contribuição: Daniel(v_3_r_m_3@hotmail.com)
Composición de Herbert Vianna
37 vistas

0 comentarios

Ver todos los comentarios

¿Lograste tocar?

1 Tocaron 0 Aún no

¡Graba un video tocando Mensagem de Amor y envíanoslo!

00:00 / 00:00
Outros vídeos desta música
Repetir Calidad Automático
Outros vídeos desta música
00:00 / 00:00
Automático
OK