Cifra Club

Infinita Highway + Carona

Pouca Vogal

Cifrado: Principal (guitarra y guitarra eléctrica)
tono: A
Intro: A  C#m  D  E
   A         C#m   D     E
E|------------------------------------------|
B|------------------------------------------|
G|-----2----4/6----7-6-4-7/9-9-9------------|
D|---2------4/6----7-----7/9-9-9------------|
A|-0--------2/4----5-----5/7-7-7------------|
E|------------------------------------------|
   ↓ ↓ ↓    ↓      ↓ ↑ ↓ ↓   ↓ ↓

   A      C#m  D       E
E|------------------------------------------|
B|------------------------------------------|
G|-2----4/6--6/7-7-7--7/9-9-9-9-9-9-9-------|
D|-2----4/6--6/7-7-7--7/9-9-9-9-9-9-9-------|
A|-0----2/4--4/5-5-5--5/7-7-7-7-7-7-7-------|
E|------------------------------------------|
   ↓    ↓    ↓   ↓ ↓  ↓   ↓ ↓ ↓ ↓ ↓ ↓

    A           C#m            D
E|------------------------------------------|
B|------------------------------------------|
G|-----2-----2-4/6---6-----6-6/7---7-----7--|
D|---2---2---2-4/6-6---6---6-6/7-7---7---7--|
A|-0-------0---2/4-------4---4/5-------5----|
E|------------------------------------------|
   ↓ ↓ ↑ ↑ ↓ ↓ ↓   ↓ ↑ ↑ ↓ ↓ ↓   ↓ ↑ ↑ ↓ ↓

      E
E|------------------------------------------|
B|------------------------------------------|
G|-7/9---9-----9----------------------------|
D|-7/9-9---9---9----------------------------|
A|-5/7-------7------------------------------|
E|------------------------------------------|
   ↓   ↓ ↑ ↑ ↓ ↓

      E
E|------------------------------------------|
B|------------------------------------------|
G|-7/9-9-9-9-9-9----------------------------|
D|-7/9-9-9-9-9-9----------------------------|
A|-5/7-7-7-7-7-7----------------------------|
E|------------------------------------------|
   ↓   ↓ ↓ ↓ ↓ ↓

  A            C#m           E
Você me faz correr demais os riscos dessa highway
  A            C#m              E
Você me faz correr atrás do horizonte dessa highway
   A                 C#m
Ninguém por perto, silêncio no deserto
  E
Deserta Highway
  A             C#m         E
Estamos sós e nenhum de nós sabe exatamente onde vai parar

D                    E
Mas não precisamos saber pra onde vamos
F#m
Nós só precisamos ir
D              E
  Não queremos ter o que não temos
F#m
Nós só queremos viver
D                 E
  Sem motivos nem objetivos
      A        G#m         F#m                  D
Nós estamos vivos e isso é tudo, é sobretudo a lei
E
  dessa infinita...

A    E
Carona

A gente pega e
    C#m                D    E
Não escolhe onde vai parar
A     E
Parando

Às vezes se aprende
  C#m                D
O quanto se pode andar

A    E
Carona

A gente pega e
    C#m                D
Não escolhe onde vai parar
A     E
Parando

Às vezes se aprende
  C#m                D
O quanto se pode andar

   A                C#m
Eu vejo o horizonte trêmulo
   D              E
Eu tenho os olhos úmidos
   A                   C#m
Eu posso estar completamente enganado
            D               E
Eu posso estar correndo pro lado errado
      A                     C#m
Mas a dúvida é o preço da pureza
     D            E
E é inútil ter certeza
   A                C#m
Eu vejo as placas dizendo "Não corra",
D            E
 "Não morra", "Não fume"
   A                 C#m
Eu vejo as placas cortando o horizonte
       D                  E
Elas parecem facas de dois gumes

A    E
Carona

A gente pega e
    C#m                D     E
Não escolhe onde vai parar (Nessa Infinita Highway)
A     E
Parando

Às vezes se aprende
  C#m                D
O quanto se pode andar (Nessa Infinita Highway)
00:00 / 00:00
Otros videos de esta canción
Repetir
Otros videos de esta canción
Composición de HG + DL
Colaboración y revisión:
  • Lucas Nicolas
  • Luccas Salgado
  • Bruno Paula
154 vistas
    • ½ Tono
    • A
    • Bb
    • B
    • C
    • Db
    • D
    • Eb
    • E
    • F
    • F#
    • G
    • Ab
  • Agregar a la lista

    0 comentarios

    Ver todos los comentarios

    ¿Lograste tocar?

    3 Tocaron 0 Aún no

    ¡Graba un video tocando Infinita Highway + Carona y envíanoslo!

    00:00 / 00:00
    OK