Cifra Club

Escuela de Calor

Radio Futura

Cifrado: Principal (guitarra y guitarra eléctrica)
tono: E
E||----------------------|----------------------|----------------------|
B||--8----7--------------|----------------------|----------------------|
G||------------9----7----|--6-------------------|------------7----6----|
D||----------------------|-------7--------------|--5----7--------------|
A||----------------------|------------5----7----|----------------------|
E||----------------------|----------------------|----------------------|

Riff final

E|----------------------|----------------------|---------------------------|
B|----------------------|----------------------|--2----2-------------------|
G|-----------------0----|--3----0---------0----|--2----2-------------------|
D|------------2---------|------------3---------|--0----0----2----3---------|
A|-------3--------------|----------------------|--------------------0--1---|










Riff x4
G               A
Arde la calle al sol de poniente,
hay tribus ocultas cerca del río
esperando que caiga la noche.
Hace falta valor, hace falta valor,
ven a la escuela de calor.

Riff x2

G               A
Sé lo que tengo que hacer para conseguir
que tú estés loco por mí.
Ven a mi lado y comprueba el tejido
mas cuida esas manos, chico.

Esa paloma sobrevuela el peligro,
aprendió en una escuela de calor.

Riff x2

G                A
Vas por ahí sin prestar atención
y cae sobre ti una maldición.
En las piscina provadas las chicas
desnudan sus cuerpos al sol.

No des un mal paso, no des un mal paso,
esto es una escuela de calor.

Riff x2

G                 A
Deja que me acerque,
deja que me acerque a ti,
quiero vivir del aire,
quiero salir de aquí.

Arde la calle al sol de poniente,
hay tribus ocultas cerca del río
esperando que caiga la noche.
Hace falta valor, hace falta valor,
ven a la escuela de calor.
00:00 / 00:00
Otros videos de esta canción
Repetir
Otros videos de esta canción
Composición de J.C. Velázquez / Santiago Auserón
138 vistas
    • ½ Tono
    • A
    • Bb
    • B
    • C
    • Db
    • D
    • Eb
    • E
    • F
    • F#
    • G
    • Ab
  • Agregar a la lista

    0 comentarios

    Ver todos los comentarios

    ¿Lograste tocar?

    0 Tocaron 0 Aún no

    ¡Graba un video tocando Escuela de Calor y envíanoslo!

    00:00 / 00:00
    OK