Cifra Club

la Negra Flor

Radio Futura

Cifrado: Principal (guitarra y guitarra eléctrica)
tono: D
Intro de guitarra de Santiago:

E|------------4]0-3]5-3]4]0-----------------|
B|---------3----------------3]0-------------|
G|--0-2]4-----------------------2]0---------|
D|----------------------------------2-------|
A|------------------------------------------|
E|------------------------------------------|

Para hacer la melodía de guitarra tras el solo,
empezamos en E y nos apoyamos con el dedo meñique
en el segundo traste de la tercera cuerda, luego
pasamos a Bm, lo repetimos una vez más pero ahora
tras llegar a Bm pasamos a A y terminamos en E para
comenzar el verso:

E                 Bm
Y al final de la rambla
                    E
me encontré con la negra flor
                   Bm  A
que creció tan hermosa
                  E
de su tallo enfermizo.
                  Bm
Y al final de la rambla
                    E
me encontré con la negra flor
                 Bm   A
Donde vas negra rosa
                E
me regalas tu amor

Rompe el ritmo la batería, y la guitarra
rítmica lo marca con G - A - G - E mientras
la eléctrica hace el siguiente punteo en
"palm mute":

E|------------------------------------------|
B|------------------------------------------|
G|------------------------------------------|
D|------------------------------------------|
A|-5-7---5-7---5-7----5-7-------------------|
E|-----7-----7------7-----------------------|


A7
Y al final de la rambla
          E
me encontré con la negra flor
 A7
que creció tan hermosa
         E
de su tallo enfermizo.
A7
Y al final de la rambla
         E
me encontré con la negra flor
D
Donde vas negra rosa
      E        D
me regalas tu amor

ESTRIBILLO:

        G     A         E
Que tu pena fuera solo por mi culpa
        G           A            E
que mi culpa fuera solo por tu amor
         G            A            E
que los besos flores negras de la rambla son
      B
o de un rincón

Ahora solo nos quedaría el solo de guitarra de Enrrique:

E|-------------------------------------------------------|
B|-------------------------------------------------------|
G|-6]7-7-7-7-7-7-6]7| 6]7--------6]7-7-7-7-7-7-6]7 6]7-7]9|
D|-----------------------4-4]5---------------------------|
A|-------------------------------------------------------|
E|-------------------------------------------------------|

E|---10-----|
B|-8----8---|
G|---------9|
D|----------|
A|----------|

E|---------------------------------10------|
B|-10b--8]10----------10b-8]10---8----8----|
G|-----------7-7]9-------------9-----------|
D|-----------------9-----------------------|
A|-----------------------------------------|
E|-----------------------------------------|
00:00 / 00:00
Otros videos de esta canción
Repetir
Otros videos de esta canción
Composición de Santiago Auserón
50 vistas
    • ½ Tono
    • A
    • Bb
    • B
    • C
    • Db
    • D
    • Eb
    • E
    • F
    • F#
    • G
    • Ab
  • Agregar a la lista

    0 comentarios

    Ver todos los comentarios

    ¿Lograste tocar?

    0 Tocaron 0 Aún no

    ¡Graba un video tocando la Negra Flor y envíanoslo!

    00:00 / 00:00
    OK