Cifra Club

Crucificados pelo Sistema

Ratos de Porão

Cifrado: Principal (guitarra y guitarra eléctrica)
tono: F
Normal (eBGDAE)

Esta música é difícil de tocar sem se cansar!
Faça o exercício aranha antes de começar:

Aranha:
e|-----------------------------|
B|-----------------------------|
G|----------------------1-2...-|
D|---------------1-2-3-4-------|
A|--------1-2-3-4--------------|
E|-1-2-3-4---------------------|
 e vice-versa

Música:

Intro:
            Intro e Versos 
e|---------|--------------------|
B|---------|--------------------|
G|---------|------------------8-|
D|---------|-8/10-8/10-8/10---6-|
A|---------|-6/8--6/8--6/8--x---|
E|-Bateria-|--------------------|

Refrão:
         4x
e|---------|-----|
B|---------|-----|
G|---------|-7~~-|
D|-5-55--8-|-7~~-|
A|-5-55--8-|-5~~-|
E|-3-33--6-|-----|

Letra:
Nascer pra liberdade e 
crescer para morrer

Crucificados pelo sistema (Sistemados pelo crucifa)

Morrer sem esquecer
o povo que ficaaaaooou!

Crucificados pelo sistema (Sistemados pelo crucifa)

É Isso! Vou ver se tiro Suposicollor e Video Macumba pra vcs! Valew!

Leonardo Almeida Iglesias
Compositor não encontrado.
238 vistas
    • ½ Tono
    • A
    • Bb
    • B
    • C
    • Db
    • D
    • Eb
    • E
    • F
    • F#
    • G
    • Ab
  • Agregar a la lista

    0 comentarios

    Ver todos los comentarios

    ¿Lograste tocar?

    0 Tocaron 0 Aún no

    ¡Graba un video tocando Crucificados pelo Sistema y envíanoslo!

    00:00 / 00:00
    Outros vídeos desta música
    Repetir Calidad Automático
    Outros vídeos desta música
    00:00 / 00:00
    Automático
    OK