Cifra Club

Guerra civil canibal

Ratos de Porão

Cifrado: Principal (guitarra y guitarra eléctrica)
tono: G
Afinar em D

e| ----------------------------------|
b|-----------------------------------| 
g|-----------------------------------| 
d|-----------------------------------|
a|-0-4-0-0-4-0-04-00-4-00-4-0-4-0----|
D|-0-4-0-0-4-0-04-00-4-00-4-0-4-0----|

Por quê?
Inocentes sempre vão
Pagar,sofrimento e o que vai restar?
Nova guerra por religião,
carne humana mata a fome ou não?

*mesma coisa para:
Sempre igual,sempre igual,
Realidade podre ficção.
Refugiados agora vão chorar,
Pelo sangue da populaçào.

Refrão

e|-----------------------------------|
b|-10^-----------------10^-----------| 
g|-13^-----------------13^-----------| 
d|-----------------------------------|
a|-----8888-11-11-11-11--------------|
D|-----8888-11-11-11-11--------------|

Guerra civil canibal
em nome de Deus(2x)


Após o solo, abafado.
e| ----------------------------------|
b|-----------------------------------| 
g|-----------------------------------| 
d|-----------------------------------|
a|-----------------------------------|
D|-00000-444-00000...----------------|
Compositor não encontrado.
Colaboración y revisión:
  • leonardo bythors
  • guilherme
66 vistas
    • ½ Tono
    • A
    • Bb
    • B
    • C
    • Db
    • D
    • Eb
    • E
    • F
    • F#
    • G
    • Ab
  • Agregar a la lista

    0 comentarios

    Ver todos los comentarios

    ¿Lograste tocar?

    1 Tocaron 0 Aún no

    ¡Graba un video tocando Guerra civil canibal y envíanoslo!

    00:00 / 00:00
    Outros vídeos desta música
    Repetir Calidad Automático
    Outros vídeos desta música
    00:00 / 00:00
    Automático
    OK