Cifra Club

Prelude To Madness Hall Of The Mountain King

Savatage

Cifrado: Principal (guitarra y guitarra eléctrica)
Selo Cifra Club: esta cifra foi revisada para atender aos critérios oficiais da nossa Equipe de Qualidade.
tono: Em
E|E|-------------------------------------------------------------------------------||
              Prelude to Madness (Hall of The Mountain King) - Savatage
E|E|-------------------------------------------------------------------------------||

Tuning:Standard

E|---------------------------------------------------------------------------|
B|---------------------------------------------------------------------------|
G|---------------------------------------------------------------------------|
D|------------------------------------------2-0-------0----------------------|
A|-------0-2---2-1---1-0---0--------0-2---2-----2---2------------------------|
E|-0-2-3-----3-----2-----1----0-2-3-----3---------3--------------------------|

E|---------------------------------------------------------------------------|
B|---------------------------------------------------------------------------|
G|------------------------------------------2-0------------------------------|
D|-------0-2---2-1---1-0---0--------0-2---2-----2-0--------------------------|
A|-0-2-3-----3-----2-----1----0-2-3-----3-----------2------------------------|
E|----------------------------------------------------3-2-0------------------|
Otros videos de esta canción
    0 exhibiciones
      • ½ Tono
      • Am
      • Bbm
      • Bm
      • Cm
      • C#m
      • Dm
      • Ebm
      • Em
      • Fm
      • F#m
      • Gm
      • G#m
    • Agregar a la lista

    Afinação da cifra

    Afinador online

      Ops (: Contenido disponible solo en portugués.
      OK