Cifra Club

The Sound Of Silence

Simon & Garfunkel

Cifrado: Principal (guitarra y guitarra eléctrica)
Selo Cifra Club: esta cifra foi revisada para atender aos critérios oficiais da nossa Equipe de Qualidade.
tono: Ebm (forma dos acordes no tom de Am) Capotraste na 6ª casa
[Intro] A5(9)

[Tab - Intro]

   A5(9)    
E|---0---0----0---0----0---0---0---0--------|
B|-----0--------0--------0-------0----------|
G|-2--------2--------2-------2--------------|
D|------------------------------------------|
A|------------------------------------------|
E|------------------------------------------|
   p i p i   

[Primeira Parte]

[Tab - Primeira Parte]

Parte 1 de 7
   G    
E|---3---3---3---3---3---3---3---3----------|
B|------------------------------------------|
G|-----0-------0-------0-------0------------|
D|------------------------------------------|
A|------------------------------------------|
E|-3-------3-------3-------3----------------|
   p i p i 

Parte 2 de 7
   Am                       C
E|---0-------0-------0--------0-------------|
B|-------1-------1-------1--------1---------|
G|-----2-------2-------2--------0-----------|
D|------------------------------------------|
A|-0-------0-------0--------3---------------|
E|------------------------------------------|
   p i p i

Parte 3 de 7
   F       C       C/G     C
E|---1-------0-------0-------0--------------|
B|-------1-------1-------1-------1----------|
G|-----2-------0-------0-------0------------|
D|------------------------------------------|
A|---------3---------------3----------------|
E|-1---------------3------------------------|
   p i p i

Parte 4 de 7
   F       C       C/G     
E|---1-------0-------0----------------------|
B|-------1-------1-------1------------------|
G|-----2-------0-------0--------------------|
D|------------------------------------------|
A|---------3--------------------------------|
E|-1---------------3------------------------|
   p i p i

Parte 5 de 7
   F     
E|---1-------1-------1-------1--------------|
B|-------1-------1-------1-------1----------|
G|-----2-------2-------2-------2------------|
D|------------------------------------------|
A|------------------------------------------|
E|-1-------1-------1-------1----------------|
   p i p i

Parte 6 de 7
   C                       Am      C 
E|---0-------0-------0-----------0---0------|
B|-------1-------------1-------1-1-------1--|
G|-----0-------2-0-------------2-------0----|
D|---------------------------2--------------|
A|-3-------3-------3-----2-0-------3--------|
E|------------------------------------------|
   p i p i p i p p p i i p p p p p p i p i 

Parte 7 de 7
   G               A5(9)            Am
E|---3---3---3---3---0---0---0---0--0-------|
B|---------------------0-------0----1-------|
G|-----0-------0---2-------2--------2-------|
D|----------------------------------2-------|
A|----------------------------------0-------|
E|-3-------3--------------------------------|
   p i p i                          p 

A5(9)                           G
      Hello, darkness, my old friend
                             Am
I've come to talk with you again
           C          F      C   C/G
Because a vision softly creeping
                        
Left its seeds while 
   F       C   C/G
I was sleeping
         F 
And the vision that was planted in my 
  C   
Brain
              Am
Still remains
C             G        A5(9)  Am
  Within the sound of silence
 
[Segunda Parte]

[Tab - Segunda Parte]

Parte 1 de 8
   G     
E|-3-3--3-3--3-3--3-3--3-3--3-3--3-3--3-3---|
B|-0-0--0-0--0-0--0-0--0-0--0-0--0-0--0-0---|
G|-0-0--0-0--0-0--0-0--0-0--0-0--0-0--0-0---|
D|-0-0--0-0--0-0--0-0--0-0--0-0--0-0--0-0---|
A|-2-2--2-0--2-2--2-0--2-2--2-0--2-2--2-0---|
E|-3----3-3--3----3-3--3----3-3--3----3-3---|
   ↓ ↑  ↓ ↓ 

Parte 2 de 8
   Am                            C    
E|-0-0--0-0--0-0--0-0--0-0--0-0--0-0--0-0---|
B|-1-1--1-1--1-1--1-1--1-1--1-1--1-1--1-1---|
G|-2-2--2-0--2-2--2-0--2-2--2-0--0-0--0-0---|
D|-2-2--2-0--2-2--2-0--2-2--2-0--2-2--2-0---|
A|-0----0-0--0----0-0--0----0-0--3----3-3---|
E|------------------------------------------|
   ↓ ↑  ↓ ↓ 

Parte 3 de 8
   F         C    
E|-1-1--1-1--0-0--0-0--0-0--0-0--0-0--0-0---|
B|-1-1--1-1--1-1--1-1--1-1--1-1--1-1--1-1---|
G|-2-2--2-2--0-0--0-0--0-0--0-0--0-0--0-0---|
D|-3-3--3-3--2-2--2-0--2-2--2-0--2-2--2-0---|
A|-3-3--3-3--3----3-3--3----3-3--3----3-3---|
E|-1----1-1---------------------------------|
   ↓ ↑  ↓ ↓ 

Parte 4 de 8
   F         C    
E|-1-1--1-1--0-0--0-0--0-0--0-0-------------|
B|-1-1--1-1--1-1--1-1--1-1--1-1-------------|
G|-2-2--2-2--0-0--0-0--0-0--0-0-------------|
D|-3-3--3-3--2-2--2-0--2-2--2-0-------------|
A|-3-3--3-3--3----3-3--3----3-3-------------|
E|-1----1-1---------------------------------|
   ↓ ↑  ↓ ↓ 

Parte 5 de 8
   F    
E|-1-1--1-1--1-1--1-1--1-1--1-1--1-1--1-1---|
B|-1-1--1-1--1-1--1-1--1-1--1-1--1-1--1-1---|
G|-2-2--2-2--2-2--2-2--2-2--2-2--2-2--2-2---|
D|-3-3--3-3--3-3--3-3--3-3--3-3--3-3--3-3---|
A|-3-3--3-3--3-3--3-3--3-3--3-3--3-3--3-3---|
E|-1----1-1--1----1-1--1----1-1--1----1-1---|
   ↓ ↑  ↓ ↓ 

Parte 6 de 8
   C                             Am   
E|-0-0--0-0--0-0-------0-0--0------0--0-0---|
B|-1-1--1-1--1-1--1-1--1-1--1------1--1-1---|
G|-0-0--0-0--0-0--2-0--0-0--0-0--2-2--2-2---|
D|-2-2--2-2--2-2--3-2--2-2--2-0--2-2--2-2---|
A|-3----3-3--3---------3----3-2--0----0-0---|
E|------------------------------------------|
   ↓ ↑  ↓ ↓ 

Parte 7 de 8
   C         G    
E|-0-0--0-0--3-3--3-3--3-3--3-3-------------|
B|-1-1--1-1--0-0--0-0--0-0--0-0-------------|
G|-0-0--0-0--0-0--0-0--0-0--0-0-------------|
D|-2-2--2-2--0-0--0-0--0-0--0-0-------------|
A|-3----3-3--2-2--2-2--2-2--2-2-------------|
E|-----------3----3-3--3----3-3-------------|
   ↓ ↑  ↓ ↓ 

Parte 8 de 8
  Am
E|-0-0--0-0--0-0--0-0--0-0--0-0--0-0--0-0---|
B|-1-1--1-1--1-1--1-1--1-1--1-1--1-1--1-1---|
G|-2-2--2-0--2-2--2-0--2-2--2-0--2-2--2-0---|
D|-2-2--2-0--2-2--2-0--2-2--2-0--2-2--2-0---|
A|-0----0-0--0----0-0--0----0-0--0----0-0---|
E|------------------------------------------|
   ↓ ↑  ↓ ↓ 

                              G
In restless dreams I walked alone
                          Am
Narrow streets of cobblestone
            C      F         C        
'Neath the halo of a street lamp
                           F        C
I turned my collar to the cold and damp
        F
When my eyes were stabbed by the flash 
           C
Of a neon light
                     Am  
That split the night
C                  G        Am
  And touched the sound of silence

[Terceira Parte]

[Tab - Terceira Parte - Variações]

Parte 4 de 8
   F         C    
E|-1-1--1-1--0-0--0-0--0-0--0-0--0-0--0-0---|
B|-1-1--1-1--1-1--1-1--1-1--1-1--1-1--1-1---|
G|-2-2--2-2--0-0--0-0--0-0--0-0--0-0--0-0---|
D|-3-3--3-3--2-2--2-0--2-2--2-0--2-2--2-0---|
A|-3-3--3-3--3----3-3--3----3-3--3----3-3---|
E|-1----1-1---------------------------------|
   ↓ ↑  ↓ ↓ 

                          G
And in the naked light I saw
                            Am 
Ten thousand people, maybe more
        C          F        C
People talking without speaking
                   F         C
People hearing without listening
                F
People writing songs that voices never 
  C
Share
                Am  
And no one dare
C              G        Am
  Disturb the sound of silence

[Quarta Parte]

[Tab - Quarta Parte - Variações]

Parte 6 de 8
   C                             Am   
E|-0-0--0-0--0-0-------0-0--0------0--0-0---|
B|-1-1--1-1--1-1--1-1--1-1--1------1--1-1---|
G|-0-0--0-0--0-0--2-0--0-0--0-0--2-2--2-2---|
D|-2-2--2-2--2-2--3-2--2-2--2-0--2-2--2-2---|
A|-3----3-3--3---------3----3-2--0----0-0---|
E|------------------------------------------|
   ↓ ↑  ↓ ↓ 

Parte 7 de 8
   Am                  G    
E|-0-0--0-0--0-0--0-0--3-3--3-3--3-3--3-3---|
B|-1-1--1-1--1-1--1-1--0-0--0-0--0-0--0-0---|
G|-2-2--2-0--2-2--2-0--0-0--0-0--0-0--0-0---|
D|-2-2--2-0--2-2--2-0--0-0--0-0--0-0--0-0---|
A|-0----0-0--0----0-0--2-2--2-2--2-2--2-2---|
E|---------------------3----3-3--3----3-3---|
   ↓ ↑  ↓ ↓ 

                            G
Fools, said I, you do not know
                        Am
Silence like a cancer grows
         C            F           C
Hear my words that I might teach you
                     F           C
Take my arms that I might reach you
        F                           C   
But my words like silent raindrops fell
Am                    G        Am
   And echoed in the wells of silence

[Quinta Parte]

[Tab - Quinta Parte - Variações]

Parte 7 de 8
   C                   G    
E|-0-0--0-0--0-0--0-0--3-3--3-3--3----------|
B|-1-1--1-1--1-1--1-1--0-0--0-0--0----------|
G|-0-0--0-0--0-0--0-0--0-0--0-0--0----------|
D|-2-2--2-0--2-2--2-0--0-0--0-0--0----------|
A|-3----3-3--3----3-3--2-2--2-2--2----------|
E|---------------------3----3-3--3----------|
   ↓ ↑  ↓ ↓ 

Parte 8 de 8
   A5(9)    
E|---0---0----0---0----0---0----------0----|
B|-----0--------0--------0------------0----|
G|-2--------2--------2----------------2----|
D|------------------------------------2----|
A|------------------------------------0----|
E|------------------------------------0----|
   p i p i                            ↑

                           G
And the people bowed and prayed
                      Am
To the neon god they made
         C               F       C
And the sign flashed out its warning
                      F      C
In the words that it was forming

And the sign said
     F
The words of the prophets are written 
               C
On the subway walls
                   Am  
And tenement halls
      C               G        A5(9)  
And whispered in the sound of silence

[Final] A5(9)/E
Otros videos de esta canción
    139.444 exhibiciones
    • Simplificar cifrado
      • ½ Tono
      • Am
      • Bbm
      • Bm
      • Cm
      • C#m
      • Dm
      • Ebm
      • Em
      • Fm
      • F#m
      • Gm
      • G#m
    • Agregar a la lista

    Afinação da cifra

    Afinador online

      Capítulos
      • Tocando a Música
      • Apresentação / Equipamentos
      • Acordes da Música
      • Tocando Introdução - Primeira Parte
      • Ensinando Introdução
      • Ensinando Primeira Parte - Parte 1 de 7
      • Ensinando Primeira Parte - Parte 2 de 7
      • Ensinando Primeira Parte - Parte 3 de 7
      • Ensinando Primeira Parte - Parte 4 de 7
      • Ensinando Primeira Parte - Parte 5 de 7
      • Ensinando Primeira Parte - Parte 6 de 7
      • Ensinando Primeira Parte - Parte 7 de 7
      • Tocando Segunda Parte - Quinta Parte
      • Ensinando Segunda Parte - Parte 1 de 8
      • Ensinando Segunda Parte - Parte 2 de 8
      • Ensinando Segunda Parte - Parte 3 de 8
      • Ensinando Segunda Parte - Parte 4 de 8
      • Ensinando Segunda Parte - Parte 5 de 8
      • Ensinando Segunda Parte - Parte 6 de 8
      • Ensinando Segunda Parte - Parte 7 de 8
      • Ensinando Segunda Parte - Parte 8 de 8
      • Ensinando Terceira Parte - Parte 4 de 8
      • Ensinando Quarta Parte - Parte 6 de 8
      • Ensinando Quarta Parte - Parte 7 de 8
      • Ensinando Quinta Parte - Parte 7 de 8
      • Ensinando Quinta Parte - Parte 8 de 8
      • Encerramento
      Ops (: Contenido disponible solo en portugués.
      OK