Cifra Club

Kiss Me Acoustic

Sixpence None The Richer

Cifrado: Principal (guitarra y guitarra eléctrica)
tono: C
          C    CM7    C7    F    Dm    G    C    Am7
E|--0--|--0--|--0--|--1--|--1-|--3-|--0--|--0--|
B|--1--|--0--|--1--|--1--|--3-|--0-|--1--|--1--|
G|--0--|--0--|--3--|--2--|--2-|--0-|--0--|--0--|
D|--2--|--2--|--2--|--3--|--0-|--0-|--2--|--2--|
A|--3--|--3--|--3--|-----|----|--2-|--3--|--0--|
E|-----|-----|-----|-----|----|--3-|-----|-----|
       Gsus4/B Gsus2 FM7sus2 Gsus4
E|--0--|--0--|--0--|--3--|
B|--1--|--1--|--1--|--1--|
G|--0--|--0--|--2--|--0--|
D|--0--|--0--|--3--|--0--|
A|--2--|--2--|-----|--2--|
E|-----|--3--|-----|--3--|

Intro: (Guitar 1 only)


Verse 1:
Guitar 1: (strumming pattern) see the chords in the guitar 2 tab
          And follow the chords pattern in the chord chart above.
Guitar 2:

        Kiss me      out of the bearded barley   
          C            CM7
E|---------------------------------------------|
B|--13-13--------12-12-------------------------|
G|---------------------------------------------|
D|---------------------------------------------|
A|---------------------------------------------|
E|---------------------------------------------|
         Nightly       besides the green, green grass
          C7            CM7
E|-----------------------------------------------|
B|--11-11---------12-12--------------------------|
G|-----------------------------------------------|
D|-----------------------------------------------|
A|-----------------------------------------------|
E|-----------------------------------------------|
        Swing, swing                   swing the spinning step
         C                              CM7
E|-------15--------15----15-------------15--------15----15-|
B|-13-13-----13-13----13----------12-12-----12-12----12----|
G|---------------------------------------------------------|
D|---------------------------------------------------------|
A|---------------------------------------------------------|
E|---------------------------------------------------------|
       You wear those shoes and I will wear that dress 
         C7                             F
E|-------15--------15----15-------12-13-15-----------|
B|-11-11-----11-11----11-------------------15b17--13-|
G|---------------------------------------------------|
D|---------------------------------------------------|
A|---------------------------------------------------|
E|---------------------------------------------------|

Refrain:

Note: For guitar 1 use chord in the chord chart above
      For guitar 2 use the chord chart below and use a                
      strumming pattern.

     Dm   G  C         Am7
Oh, kiss me beneath the milky twilight
 Dm   G  C          C7      Dm
Lead me out on the moonlit floor
      G
Lift up your open hand
   C          Gsus4/B            Am7
Strike up the band and make the fireflies dance
 Gsus2         F  FM7sus2  Gsus4  Gpause
Silver moon's sparkling                    So Kiss me

Chord chart for guitar 2 (for refrain)

            Dm        G          C        Am7        Dm
E|----5----|----10----|----8----|----5----|----10----|
B|----6----|----8-----|----8----|----5----|----10----|
G|----7----|----7-----|----9----|----5----|----10----|
D|---------|----------|---------|---------|----------|
A|---------|----------|---------|---------|----------|
E|---------|----------|---------|---------|----------|
            G         C          C7        Dm        G
E|----7----|----8-----|----10---|----10---|----7----|
B|----8----|----8-----|----8----|----10---|----8----|
G|----7----|----9-----|----9----|----10---|----7----|
D|---------|----------|---------|---------|---------|
A|---------|----------|---------|---------|---------|
E|---------|----------|---------|---------|---------|
            C       Gsus4/B     Am7      Gsus2       F
E|----8----|----7-----|----5----|----10---|----5----|
B|----8----|----8-----|----5----|----8----|----6----|
G|----9----|----7-----|----5----|----7----|----5----|
D|---------|----------|---------|---------|---------|
A|---------|----------|---------|---------|---------|
E|---------|----------|---------|---------|---------|
         FM7sus2    Gsus4        Gpause
E|----5----|----8-----|----7----|
B|----5----|----8-----|----8----|
G|----5----|----9-----|----7----|
D|---------|----------|---------|
A|---------|----------|---------|
E|---------|----------|---------|

Interlude:

Guitar 1: (strumming pattern) see chords in the guitar 2 tab

Guitar 2:

         C                              CM7
E|-------15--------15----15-------------15--------15----15-|
B|-13-13-----13-13----13----------12-12-----12-12----12----|
G|---------------------------------------------------------|
D|---------------------------------------------------------|
A|---------------------------------------------------------|
E|---------------------------------------------------------|
         C7                           CM7                     CM7
E|-------15--------15----15----------15-------------------|
B|-11-11-----11-11----11-------12-12-------15b17-13-15-13-|
G|--------------------------------------------------------|
D|--------------------------------------------------------|
A|--------------------------------------------------------|
E|--------------------------------------------------------|
Verse 2:
Guitar 1: (strumming pattern) see the chords in the guitar 2 tab
          And follow the chords pattern in the chord chart above.

Guitar 2:

        Kiss me                down by the broken tree house
          C                              CM7
E|-------15--------15----15-------------15--------15----15-|
B|-13-13-----13-13----13----------12-12-----12-12----12----|
G|---------------------------------------------------------|
D|---------------------------------------------------------|
A|---------------------------------------------------------|
E|---------------------------------------------------------|
        Swing me               upon its hanging tire
         C7                             CM7
E|-------15--------15----15-------------15--------15-----15--|
B|-11-11-----11-11----11----------12-12-----12-12-----12-----|
G|-----------------------------------------------------------|
D|-----------------------------------------------------------|
A|-----------------------------------------------------------|
E|-----------------------------------------------------------|
        Bring, bring,           bring your flowered hat
         C                              CM7
E|-------15--------15----15-------------15--------15----15-|
B|-13-13-----13-13----13----------12-12-----12-12----12----|
G|---------------------------------------------------------|
D|---------------------------------------------------------|
A|---------------------------------------------------------|
E|---------------------------------------------------------|
       We'll take the trail marked on your father's map
         C7                             F
E|-------15--------15----15-------12-13-15-----------|
B|-11-11-----11-11----11-------------------15b17--13-|
G|---------------------------------------------------|
D|---------------------------------------------------|
A|---------------------------------------------------|
E|---------------------------------------------------|

Repeat Refrain:

Bridge: 

Guitar 1: (mild/soft strumming) see chords on the guitar 2 tab

Guitar 2:
         C                CM7               C7
E|----------------------------0---------------------------|
B|-----1---0-1----------0---3---3---------1-------1-------|
G|-------0-----0----------0-------0---------0h3-3---3-----|
s|---2-----------2----2-----------------2-------------2---|
A|-3----------------3-----------------3-------------------|
E|--------------------------------------------------------|
         CM7              C                 CM7
E|-----------0----------------------------------0--------|
B|-----0---3---3--------1---0-1-----------0---3---3------|
G|-------0-------0--------0-----0-----------0-------0----|
D|---2----------------2-----------2-----2----------------|
A|-3----------------3-----------------3------------------|
E|-------------------------------------------------------|
         C7                CM7           CM7
E|-------------0----------------0--------|
B|-----1-----1---1------------3---3------|
G|---------3-------------0---------------|
D|---2---2-------------2---2-------------|
A|-3-----------------3-------------------|
E|---------------------------------------|

ADLIB:

Guitar 1: strumming pattern (see chords in the guitar 2 tab)

Guitar 2:
          Dm         G                         C
E|-12-13-15-13-12-13-----------------------------------------|
B|---------------------12h13-13h15-15----12h13--15-13-12-----|
G|-------------------------------------------------------14--|
D|-----------------------------------------------------------|
A|-----------------------------------------------------------|
E|-----------------------------------------------------------|
          Am7              Dm       G
E|------------------12-13-15-13-12-13-----------------------|
B|--------------------------------------12h13-13h15-15------|
G|-14-12----------------------------------------------------|
D|-------15-14-12-------------------------------------------|
A|----------------------------------------------------------|
E|----------------------------------------------------------|
          C                 C7
E|---------------------------------------12---------|
B|------------------------10----12-13-15----13-15---|
G|----------------9-10-12---------------------------|
D|-------10-12--------------------------------------|
A|-10-12--------------------------------------------|
E|--------------------------------------------------|

Repeat Refrain:

Interlude:

Guitar 1: (strumming pattern) see chords in the guitar 2 tab

Guitar 2:

         C                              CM7
E|-------15--------15----15-------------15--------15----15-|
B|-13-13-----13-13----13----------12-12-----12-12----12----|
G|---------------------------------------------------------|
D|---------------------------------------------------------|
A|---------------------------------------------------------|
E|---------------------------------------------------------|
         C7                           CM7                     CM7
E|-------15--------15----15----------15-------------------|
B|-11-11-----11-11----11-------12-12-------15b17-13-15-13-|
G|--------------------------------------------------------|
D|--------------------------------------------------------|
A|--------------------------------------------------------|
E|--------------------------------------------------------|
Oh Kiss Me
         C                              CM7
E|-------15--------15----15-------------15--------15----15-|
B|-13-13-----13-13----13----------12-12-----12-12----12----|
G|---------------------------------------------------------|
D|---------------------------------------------------------|
A|---------------------------------------------------------|
E|---------------------------------------------------------|
         C7                           CM7
E|-------15--------15----15----------15-------------------|
B|-11-11-----11-11----11-------12-12-------15b17-13-15-13-|
G|--------------------------------------------------------|
D|--------------------------------------------------------|
A|--------------------------------------------------------|
E|--------------------------------------------------------|
Compositor não encontrado.
Colaboración y revisión:
  • Célio Silva
458 vistas
    • ½ Tono
    • A
    • Bb
    • B
    • C
    • Db
    • D
    • Eb
    • E
    • F
    • F#
    • G
    • Ab
  • Agregar a la lista

    0 comentarios

    Ver todos los comentarios

    ¿Lograste tocar?

    0 Tocaron 0 Aún no

    ¡Graba un video tocando Kiss Me Acoustic y envíanoslo!

    00:00 / 00:00
    Outros vídeos desta música
    Repetir Calidad Automático
    Outros vídeos desta música
    00:00 / 00:00
    Automático
    OK