Cifra Club

La Aventura del Saber

Soziedad Alkoholika

Cifrado: Principal (guitarra y guitarra eléctrica)
tono: E
E|------------------|
B|------------------|
G|-------79--------|
D|---5---79---9----|
A|---5---5| ---9----|
E|---3---------7----|

Entra la bater¡a y al mismo tiempo:

E|------------------|
B|------------------|
G|-------79--------| TOCAR ESTO
D|---5---79---9----| 5X
A|---5---5| ---9----|
E|---3---------7----|

(Hay una pequeña variación y no hace el deslizamiento a veces)

Luego cuando empieza uooooooh!..........

E|----------------|
B|----------------|
G|-------9--------| TOCAR ESTO UNAS CUANTAS VECES
D|---5---9---9----|
A|---5---7---9----|
E|---3-------7----|

        Cuando acaba el grito parar el sonido....para a continuación
   seguir tocando los mismos acordes, otras tantas veces.

        Justo antes de que empiece la frase......poner mucha atención

E|------------------|
B|------------------|
G|-------79--------|
D|---5---79---9----|
A|---5---5| ---9----|
E|---3---------7----|

        Luego antes de que empieze..."Saber bien lo que ves"....

E|----------------|
B|----------------|
G|-------9--------| TOCAR ESTO UNAS CUANTAS VECES
D|---5---9---9----|
A|---5---7---9----|
E|---3-------7----|

        Cuando empieza la frase..."Si aparece la verdad"...hay
   un punteo que no tengo a£n pero no es muy necesario

Después.........."¡No! ¡Criminalización!"

E|------------------|
B|------------------|
G|-------79--------|
D|---5---79---9----|
A|---5---5| ---9----|
E|---3---------7----|

Y luego.

E|----------------|
B|----------------|
G|-------9--------| TOCAR ESTO UNAS CUANTAS VECES
D|---5---9---9----|
A|---5---7---9----|
E|---3-------7----|
Compositor no encontrado.
    • ½ Tono
    • A
    • Bb
    • B
    • C
    • Db
    • D
    • Eb
    • E
    • F
    • F#
    • G
    • Ab
  • Agregar a la lista

    0 comentarios

    Ver todos los comentarios

    ¿Lograste tocar?

    0 Tocaron 0 Aún no

    ¡Graba un video tocando La Aventura del Saber y envíanoslo!

    00:00 / 00:00
    Otros videos de esta canción
    Repetir Calidad Automático
    Otros videos de esta canción
    00:00 / 00:00
    Automático
    OK