Cifra Club

Your Boyfriend Sucks

The Ataris

Tab de bajo: Principal
 Tabbed by Rico NFGR*.
  
*the end of the verse riff before the pre-chorus ends bouncing back and forth 
on the 3rd and 2nd frets of the d-string. *hopefully this has helped you a bit 
Start with a mad slide from the 8th to the 3rd fret on the A string (listen for timing/style) 

INTRO / VERSE 
G|---------------------------------------------------------------------------| 
D|-----------2----5----2----------2--5--2------------------------------------| 
A|-----3--3-----------------3--3---------------------------------------------| 
E|---------------------------------------------------------------------------| 

G|---------------------------------------------------------------------------| 
D|-------------6----9---6----9----6------------------------------------------| 
A|-----7--7------------------------------7----5------------------------------| 
E|---------------------------------------------------------------------------| 

G|---------------------------------------------------------------------------| 
D|---------------------------------------------------------------------------| 
A|-------------5----7----5----------------5---3---2--------------------------| 
E|----5---5----------------------3---3---------------------------------------| 

G|---------------------------------------------------------------------------| 
D|-------------0---3---2---3---2---0-----------------------------------------| 
A|----------------------------------------2----------------------------------| 
E|----1---1------------------------------------------------------------------| 

INTRO / VERSE (variation 2) 

G|---------------------------------------------------------------------------| 
D|-----------2----5----2----------2--5--2------------------------------------| 
A|-----3--3-----------------3--3---------------------------------------------| 
E|---------------------------------------------------------------------------| 

G|----------------------------9---7---5---4----------------------------------| 
D|-------------6----9---6----------------------------------------------------| 
A|-----7--7------------------------------------------------------------------|
E|---------------------------------------------------------------------------| 

G|---------------------------------------------------------------------------| 
D|---------------------------------------------------------------------------| 
A|---------------------------------------------------------------------------| 
E|-----5-----------------5--5---3-------------3--3--1-----4--4--3------------| 

Start the show... 
G|---------------------------------------------------------------------------| 
D|----------------------2---2------------------------------------------------| 
A|----2---2---3---3------------1---1-----3--3---6---5---3-3-3---0-0-0--------| 
E|---------------------------------------------------------------------------| 

Breakdown (timing varies, correct notes however) 
G|---------------------------------------------------------------------------| 
D|---------------------------------------------------------------------------| 
A|---------------------------------------------------------------------------| 
E|---5-----4----3----2-----1-------3-----------------------------------------|  

:: Ultimate Guitar Archive :: 
http://* 



00:00 / 00:00
Otros videos de esta canción
Repetir
Otros videos de esta canción
Composición de Kris Roe
19 exhibiciones
00:00 / 00:00
OK