Cifra Club

Aprenda

Jenny Was A Frined Of Mine

The Killers

Tablatura: Principal (guitarra)
tono: F#
Guitar: Intro
e|-6--6--6--6-------|
B|-7--7--7--7-------|
G|-8--8--8--8-------|x16
D|-8--8--8--8-------|
A|-6--6--6--6-------|
E|------------------|

::Drum fill::

So many people have asked me for this, so I will fill out the 
intro/verse bass part as well.

Bass: Verse, Intro
e|---------------------------------------------------------------------------|
B|---------------------------------------------------------------------------|
G|---------------------------------------------------------------------------|
D|---------------------------------------------------------------------------|
A|-6--6--6--6--6--6---6--8--9---4--4--4--4--4--4---4--1---2--2--2--2--2--2---|
E|---------------------------------------------------------------------------|

e|---------------------------------------------------------------------------|
B|---------------------------------------------------------------------------|
G|---------------------------------------------------------------------------|
D|----------------4--3-------------------------------------------------------|
A|-2--2--2--2--2--------4----------------------------------------------------| 
E|---------------------------------------------------------------------------|

1st verse: No Guitar until end

Guitar: 1st verse

I know my rights I’ve been here all day 
e|-2--2--2--2--2--2---2--2--2--2--2--2-|
B|-2--2--2--2--2--2---2--2--2--2--2--2-|
G|-4--4--4--4--4--4---4--4--4--4--4--4-|
D|-4--4--4--4--4--4---4--4--4--4--4--4-|
A|-2--2--2--2--2--2---2--2--2--2--2--2-|
E|-2--2--2--2--2--2---2--2--2--2--2--2-|
 And its time


Guitar: Verse
e|-6--6--6--6--6--6----------------------2--2--2--2--2--2---2--2--2--2--2--2-|
B|-7--7--7--7--7--7---6--6--6--6--6--6---2--2--2--2--2--2---2--2--2--2--2--2-|
G|-8--8--8--8--8--8---6--6--6--6--6--6---4--4--4--4--4--4---4--4--4--4--4--4-|
D|-8--8--8--8--8--8---6--6--6--6--6--6---4--4--4--4--4--4---4--4--4--4--4--4-|
A|-6--6--6--6--6--6---4--4--4--4--4--4---2--2--2--2--2--2---2--2--2--2--2--2-|
E|---------------------------------------2--2--2--2--2--2---2--2--2--2--2--2-|

Pre-Chorus:
e|---------------------------------|-------------------------------------------|
B|----------9------9------9--11--9-|-----------------9------9------9--11--12---|
G|-10-h-11-----11-----11-----------|x2------10-h-11-----11-----11--------------|
D|---------------------------------|Then…--------------------------------------|
A|---------------------------------|-------------------------------------------|
E|---------------------------------|-------------------------------------------|

Chorus:
e|-6--6--6--6--6--6--6--6---------------------------2--2--2--2--2--2--2--2-----|
B|-7--7--7--7--7--7--7--7---6--6--6--6--6--6--6--6--2--2--2--2--2--2--2--2---6~|
G|-8--8--8--8--8--8--8--8---6--6--6--6--6--6--6--6--4--4--4--4--4--4--4--4---6~|
D|-8--8--8--8--8--8--8--8---6--6--6--6--6--6--6--6--4--4--4--4--4--4--4--4---6~|
A|-6--6--6--6--6--6--6--6---4--4--4--4--4--4--4--4--2--2--2--2--2--2--2--2---4~|
E|--------------------------------------------------2--2--2--2--2--2--2--2-----|
                Jenny was a friend of mine    so come-on, so come-on, so come-on…Woahhhhhhhhhhhh

During synthesizer part/outro guitar strums really fast:
e|---------------------------------------------------------------------------|
B|---------------------------------------------------------------------------|
G|---------------------------------------------------------------------------|
D|-9-------------------------------------------------------------------------|
A|-x--It also ends on this note as well--------------------------------------|
E|-7-------------------------------------------------------------------------|

| /  slide up
| \  slide down
| h  hammer-on
| p  pull-off
| ~ vibrato
| +  harmonic
| x  Mute note
Composição de The Killers
Colaboración y revision:
  • Pedro Chaves
  • Élison Duarte
207 reproducciones
    • ½ Tono
    • A
    • Bb
    • B
    • C
    • Db
    • D
    • Eb
    • E
    • F
    • F#
    • G
    • Ab
  • Adicionar à lista

    0 comentarios

    Ver todos os comentários

    ¿Conseguiste tocar?

    0 Tocaram 0 Ainda não

    Grave um vídeo tocando Jenny Was A Frined Of Mine e nos envie!

    00:00 / 00:00
    outros vídeos desta música
    repetir qualidade Automático
    Outros vídeos desta música
    00:00 / 00:00
    Automático
    OK