Cifra Club

I Wanna Be Where The Boys Are

The Runaways

Cifrado: Principal (guitarra y guitarra eléctrica)
tono: Bm
Riff:
|------------------|
|------------------|
|------------------|
|-7--77-7-7-77-7---|
|-7--77-7-7-77-7---|
|-5--55-5-5-55-5---|

REFRÂO:
|-----------------------------|
|-----------------------------|     (3X)
|-7-7-7--5-5-x-4--4/5-5/7--7--|
|-7-7-7--5-5-x-4--4/5-5/7--7--|
|-5-5-5--3-3-x-2--2/3-3/5--5--|
|-----------------------------|

Bridge:
|-----------------------------|
|-----------------------------|
|-7-7-7--5-5-x-4--4/5-5/------|
|-7-7-7--5-5-x-4--4/5-5/---7--|
|-5-5-5--3-3-x-2--2/3-3/---7--|
|--------------------------5--|

Solo:
|-------------------------------------------------------|
|-------------------------------------------------------|
|---/9---9----12----13--~13~-----17---17---17---15~--15-|  (2X)
|-------------------------------------------------------|
|-------------------------------------------------------|
|-------------------------------------------------------|

|------------------------------------|
|------------------------------------|
|--/7--7-7--5--5-5--44-4-4-4h5p4h5p4-|  (3X)
|--------------------5---------------|
|------------------------------------|
|------------------------------------|
Composición de Kim Fowley / Roi Lee
Colaboración y revisión:
  • Veh. F
135 vistas
    • ½ Tono
    • Am
    • Bbm
    • Bm
    • Cm
    • C#m
    • Dm
    • Ebm
    • Em
    • Fm
    • F#m
    • Gm
    • G#m
  • Agregar a la lista

    0 comentarios

    Ver todos los comentarios

    ¿Lograste tocar?

    3 Tocaron 0 Aún no

    ¡Graba un video tocando I Wanna Be Where The Boys Are y envíanoslo!

    00:00 / 00:00
    Otros videos de esta canción
    Repetir Calidad Automático
    Otros videos de esta canción
    00:00 / 00:00
    Automático
    OK