Cifra Club

Eu Já Peguei Coisa Pior

Tierry

Cifrado: Principal (guitarra y guitarra eléctrica)
tono: B
[Solo] C#m  E  B9  F#

E|--------------------------------------------------------------|
B|--5/7-777-7p5-4h5p4------4h5-----5/7-777-7p5-4h5p4------4h5---|
G|---------------------6------------------------------6---------|
D|--------------------------------------------------------------|
A|--------------------------------------------------------------|
E|--------------------------------------------------------------|

E|--------------------------------------------------------------|
B|----4-5--4---4---------------------4-5--4---4-----------------|
G|--6--------6---------------------6--------6-------------------|
D|--------------------------------------------------------------|
A|--------------------------------------------------------------|
E|--------------------------------------------------------------|

E|--------------------------------------------------------------|
B|--------4-----------------------------------------------------|
G|--4-6------6-4-4--------4/6-6---------------------------------|
D|--------------------------------------------------------------|
A|--------------------------------------------------------------|
E|--------------------------------------------------------------|

[Intro] C#m
        E

O Ministério da Saúde adverte
                   B  
Fique em casa

Chifre não é vacina

( F# )

[Primeira Parte]

C#m
Deveria ter passado
Álcool gel no peito
E
E evitado o sentimento
Que acabou comigo
B9
Tem gente que é
          F#
Pior que vírus

C#m
Quando ele me traiu
Eu fiquei de cama
E
No boteco UTI
Mais de uma semana
B9
Doente de amor
            F#
Vivendo um drama

               C#m
Com soro de 51 na veia
                E
Com injeção Conhaque
De noite, de manhã, de tarde

        B9
Me curei
                     F#
Da judiação que ele me fez

[Refrão]

O coronavírus
                 C#m
Nunca me assustou
O coronavírus
               E  
Nunca me assustou
                    B9
Eu já peguei coisa pior
E ainda chamei de amor

                      F#
Eu já peguei coisa pior


O coronavírus
               C#m
Nunca me assustou
O coronavírus
               E
Nunca me assustou 
                     B9
Eu já peguei coisa pior
E ainda chamei de amor
                      F#
Eu já peguei coisa pior
E ainda chamei de amor


[Solo] C#m  E  B9  F#

É mais uma do Tiehit!

[Segunda Parte]

              C#m
Com soro de 51 na veia
                 E
Com injeção Conhaque
De noite, de manhã, de tarde
         B9
Me curei 
                        F#
Da judiação que ele me fez

[Refrão]

O coronavírus
                 C#m
Nunca me assustou
O coronavírus
               E  
Nunca me assustou
                    B9
Eu já peguei coisa pior
E ainda chamei de amor

                      F#
Eu já peguei coisa pior

O coronavírus
                 C#m
Nunca me assustou
O coronavírus
               E  
Nunca me assustou
                    B9
Eu já peguei coisa pior
E ainda chamei de amor

                      F#
Eu já peguei coisa pior

O coronavírus
               C#m
Nunca me assustou
O coronavírus
               E
Nunca me assustou 
                     B9
Eu já peguei coisa pior
E ainda chamei de amor
                      F#
Eu já peguei coisa pior
E ainda chamei de amor
          
             C#m
E ainda chamei de amor
Composición de Tierry
Colaboración y revisión:
  • Vinicius Santos
3 vistas
    • ½ Tono
    • A
    • Bb
    • B
    • C
    • Db
    • D
    • Eb
    • E
    • F
    • F#
    • G
    • Ab
  • Agregar a la lista

    0 comentarios

    Ver todos los comentarios

    ¿Lograste tocar?

    1 Tocaron 0 Aún no

    ¡Graba un video tocando Eu Já Peguei Coisa Pior y envíanoslo!

    00:00 / 00:00
    Outros vídeos desta música
    Repetir Calidad Automático
    Outros vídeos desta música
    00:00 / 00:00
    Automático
    OK