Cifra Club

Imunização Racional (Que Beleza)

Tim Maia

Tab de bajo: Principal
Já pensou em usar uma coleção de roupas do Cifra Club? Responda as perguntas abaixo e nos ajude nessa missão! →
(afinação g|d|a|e)

|--------------------|----------------------|--------------------|----------------|
|--------------------|-----------------3----|--5-----0--3--0--5--|----------------|
|--5-----0--3--0--5--|--0--3--0--5--5-----5-|--------------------|--------0--3--0-|
|--------------------|----------------------|--------------------|----------------|

(note como o final se encaixa ao iníco nessa repetição)
|--------------------|----------------------|--------------------|
|--------------------|-----------------3----|--5-----0--3--0--5--|
|--5-----0--3--0--5--|--0--3--0--5--5-----5-|--------------------|
|--------------------|----------------------|--------------------|

|----------------|----------|----------------|---------|
|----------------|----------|--------0--3--0-|--5------|
|--------0--3--0-|--5-------|----------------|---------|
|----------------|----------|----------------|---------|

|----------------|----------|----------------|---------|----------------|
|----------------|----------|--------0--3--0-|--5------|----------------|
|--------0--3--0-|--5-------|----------------|---------|--------0--3--0-|
|----------------|----------|----------------|---------|----------------|
(volta pro início, "encaixando" de novo)
Composición de Tim Maia
Colaboración y revisión:
  • Samuel Paula
174 vistas

0 comentarios

Ver todos los comentarios

¿Lograste tocar?

4 Tocaron 0 Aún no

¡Graba un video tocando Imunização Racional (Que Beleza) y envíanoslo!

00:00 / 00:00
Outros vídeos desta música
Repetir Calidad Automático
Outros vídeos desta música
00:00 / 00:00
Automático
OK