Cifra Club

Kein Grund Zur Traurigkeit

Die Toten Hosen

Cifrado: Principal (guitarra y guitarra eléctrica)
Selo Cifra Club: esta cifra foi revisada para atender aos critérios oficiais da nossa Equipe de Qualidade.
tono: G
G 

[Strophe 1]
    G              C
Ich mag es, wie du gehst
    G
Ich mag es, wie du stehst
   
Ich mag es, wie du sprichst
                        D
Aber bitte sprich jetzt nicht
       G                 C
Wir verloren uns aus den Augen
     G
Aber niemals aus dem Sinn
                    D          G
Du lebst in mir noch ganz tief drin

[Refrain]
         C        Em     D      
Ich hab' Blut von dir im Herzen
C          Em             D
   Das ist alles, was mir bleibt
C              Em            D
Sehnsucht nach dir in meinem Herzen
C               D                G
Lange noch kein Grund zur Traurigkeit

[Strophe 2]
         G           C
Wenn ich lange genug träume
          G
Und meine Phantasie wird fett

Bringst du unsere Kids zur Schule
                          D
Und kommst du nochmal ins Bett
        G               C
Ja, ich war schon immer Träumer
G
Träumer zwischen Tag und Nacht
               D                   G
Aber irgendwann werd' auch ich mal wach

[Refrain]
         C        Em     D      
Ich hab' Blut von dir im Herzen
C          Em             D
   Das ist alles, was mir bleibt
C              Em            D
Sehnsucht nach dir in meinem Herzen
C               D                Em    Em/F#   Em/G
Lange noch kein Grund zur Traurigkeit
C               D                G
Eigentlich kein Grund zur Traurigkeit

[Strophe 3]
    G              C
Ich mag es, wie du gehst
    G
Ich mag es, wie du dich bewegst

Ich mag es, wie du lachst
                        D
Was du aus deinem Leben machst
       G                C
Ich verlor dich aus den Augen
     G
Aber niemals aus dem Sinn
                    D          G
Du bist bei mir noch ganz tief drin

[Refrain]
         C        Em     D      
Ich hab' Blut von dir im Herzen
C          Em             D
   Das ist alles, was mir bleibt
C              Em            D
Sehnsucht nach dir in meinem Herzen
C               D                Em    Em/F#   Em/G
Lange noch kein Grund zur Traurigkeit
C               D                Em    Em/F#   Em/G
Eigentlich kein Grund zur Traurigkeit
C              D                G
Überhaupt kein Grund zur Traurigkeit

Die C-Akkorde werden im Refrain mit einem kleinen Lick eingeleitet, siehe unten

 Ich hab Blut........von dir...in meinem Herzen
         C               Em              D
E|-----------0-0---0-0-0-----0-0---0-0-0-----2-2---2-2-2---2-2-----|
B|-----------1-1---1-1-1-----0-0---0-0-0-----3-3---3-3-3---3-3-----|
G|-----------0-0---0-0-0-----0-0---0-0-0-----2-2---2-2-2---2-2-----|
D|-----------2-2---2-2-2-----2-2---2-2-2-0---0-0---0-0-0---0-0-----|
A|---0-2-3---3-3---3-3-3-----2-2---2-2-2-----------------0-0-------|
E|-3---------------------0---0-0---0-0-0---------------------------|

.................das ist alles...was mir bleibt
         C               Em              D
E|-----------0-0---0-0-0-----0-0---0-0-0-----2-2---2-2-2---2-2-----|
B|-----------1-1---1-1-1-----0-0---0-0-0-----3-3---3-3-3---3-3-----|
G|-----------0-0---0-0-0-----0-0---0-0-0-----2-2---2-2-2---2-2-----|
D|-----------2-2---2-2-2-----2-2---2-2-2-0---0-0---0-0-0---0-0-----|
A|---0-2-3---3-3---3-3-3-----2-2---2-2-2-----------------0---------|
E|-----------------------0---0-0---0-0-0---------------------------|

.........Sehnsucht..nach dir...in meinem Herzen
         C               Em              D
E|-----------0-0---0-0-0-----0-0---0-0-0-----2-2---2-2-2---2-2-----|
B|-----------1-1---1-1-1-----0-0---0-0-0-----3-3---3-3-3---3-3-----|
G|-----------0-0---0-0-0-----0-0---0-0-0-----2-2---2-2-2---2-2-----|
D|-----------2-2---2-2-2-----2-2---2-2-2-0---0-0---0-0-0---0-0-----|
A|---0-2-3---3-3---3-3-3-----2-2---2-2-2-----------------0---------|
E|-----------------------0---0-0---0-0-0---------------------------|

.........Lange noch kein Grund......zur Traurigkeit
         C               D                     Em      Em/F#   Em/G
E|-----------0-0---0-0-0-----2-2---2-2-2---2-2-----0-0-----0-0---0-0-|
B|-----------1-1---1-1-1-----3-3---3-3-3---3-3-----0-0-----0-0---0-0-|
G|-----------0-0---0-0-0-----2-2---2-2-2---2-2-----0-0-----0-0---0-0-|
D|-----------2-2---2-2-2-0---0-0---0-0-0---0-0-----2-2-----2-2---2-2-|
A|---0-2-3---3-3---3-3-3-----------------0---------2-2-----2-2---2-2-|
E|---------------------------------------------0---0-0-2---2-2-3-3-3-|

.........Eigentlich kein Grund......zur Traurigkeit
         C               D                     Em      Em/F#   Em/G
E|-----------0-0---0-0-0-----2-2---2-2-2---2-2-----0-0-----0-0---0-0-|
B|-----------1-1---1-1-1-----3-3---3-3-3---3-3-----0-0-----0-0---0-0-|
G|-----------0-0---0-0-0-----2-2---2-2-2---2-2-----0-0-----0-0---0-0-|
D|-----------2-2---2-2-2-0---0-0---0-0-0---0-0-----2-2-----2-2---2-2-|
A|---0-2-3---3-3---3-3-3-----------------0---------2-2-----2-2---2-2-|
E|---------------------------------------------0---0-0-2---2-2-3-3-3-|

..........überhaupt kein Grund......zur Traurigkeit
         C               D                     G      
E|-----------0-0---0-0-0-----2-2---2-2-2---2-2---------------------------------|
B|-----------1-1---1-1-1-----3-3---3-3-3---3-3-----3-3-----3-3-----3-3-----3-3-|
G|-----------0-0---0-0-0-----2-2---2-2-2---2-2-----0-0-----0-0-----0-0-----0-0-|
D|-----------2-2---2-2-2-0---0-0---0-0-0---0-0-----0-0-----0-0-----0-0-----0-0-|
A|---0-2-3---3-3---3-3-3-----------------0---------2-2-----2-2-----2-2-----2-2-|
E|---------------------------------------------3---3-3-3---3-3-3---3-3-3---3-3-|
Otros videos de esta canción
    9 exhibiciones
      • ½ Tono
      • A
      • Bb
      • B
      • C
      • Db
      • D
      • Eb
      • E
      • F
      • F#
      • G
      • Ab
    • Agregar a la lista

    Afinação da cifra

    Afinador online

      Ops (: Contenido disponible solo en portugués.
      OK