Cifra Club

Piel Canela

Los Panchos

Cifrado: Versão 2 (guitarra y guitarra eléctrica)
Selo Cifra Club: esta cifra foi revisada para atender aos critérios oficiais da nossa Equipe de Qualidade.
tono: Bm
Requinto:
           Em     A7             Em     A7
E|---------------------|-----------------------|
B|---------------------|-----------------------|
G|--------------12-----|--------------12-------|
D|--7-7-7-8-9------11--|--7-7-7-8-9------11----|
A|---------------------|-----------------------|
E|---------------------|-----------------------|

           D     Bm              D      Bm
E|---------------------|-----------------------|
B|---------------------|-----------------------|
G|--------------11-----|--------------11-------|
D|--7-7-7-8-9------9---|--7-7-7-8-9------9-----|
A|---------------------|-----------------------|
E|---------------------|-----------------------|

           Em     A7              Em          A7            D
E|---------------------|----------------------------------------|
B|---------------------|-----------10-8-------------------------|
G|--------------12-----|----------------11-9----------------6-7-|
D|--7-7-7-8-9------11--|--7-7-7-7-------------7-----7-7--9------|
A|---------------------|----------------------------------------|
E|---------------------|----------------------------------------|




         Em          A7         D       Bm
Que se quede el infinito sin estrellas
        Em            A7             D
o que pierda el ancho mar su inmensidad
          F#                       Bm
pero el negro de tus ojos que no muera
       Em           E7             A
y el canela de tu piel se quede igual

       Em           A7         D    Bm
Si perdiera el arcoiris su belleza
        Em          A7          D
o las flores su perfúme y su color
      F#                     Bm
no sería tan inmensa mi tristeza
        Em          E7            A
como aquella de quedarme sin tu amor

              Em
Me importas...tú
  A7    Em
y tú, y tú
    A7       D
y solamente tú
  Bm    D
y tú, y tú
      Bm B7  Em
Me importas tú
  A7    Em
y tú, y tú
  A7            D
y nadie más que tú


      B7            Em
Ojos negros piel canela
        E7             A
que me llegan a desesperar


              Em
Me importas...tú
  A7    Em
y tú, y tú
    A7       D
y solamente tú
  Bm    D
y tú, y tú
      Bm B7  Em
Me importas tú
  A7    Em
y tú, y tú
  A7            D
y nadie más que tú


Requinto:

           Em     A7             Em     A7
E|---------------------|-----------------------|
B|---------------------|-----------------------|
G|--------------12-----|--------------12-------|
D|--7-7-7-8-9------11--|--7-7-7-8-9------11----|
A|---------------------|-----------------------|
E|---------------------|-----------------------|

           D     Bm              D      Bm
E|---------------------|-----------------------|
B|---------------------|-----------------------|
G|--------------11-----|--------------11-------|
D|--7-7-7-8-9------9---|--7-7-7-8-9------9-----|
A|---------------------|-----------------------|
E|---------------------|-----------------------|

           Em     A7              Em          A7            D
E|---------------------|----------------------------------------|
B|---------------------|-----------10-8-------------------------|
G|--------------12-----|----------------11-9----------------6-7-|
D|--7-7-7-8-9------11--|--7-7-7-7-------------7-----7-7--9------|
A|---------------------|----------------------------------------|
E|---------------------|----------------------------------------|



      B7            Em
Ojos negros piel canela
        E7             A
que me llegan a desesperar


              Em
Me importas...tú
  A7    Em
y tú, y tú
    A7       D
y solamente tú
  Bm    D
y tú, y tú
      Bm B7  Em
Me importas tú
  A7    Em
y tú, y tú
  A7            D
y nadie más que tú


Outro ( Requinto base y en octava)


Requinto Base:

           Em     A7             Em     A7
E|---------------------|-----------------------|
B|---------------------|-----------------------|
G|--------------12-----|--------------12-------|
D|--7-7-7-8-9------11--|--7-7-7-8-9------11----|
A|---------------------|-----------------------|
E|---------------------|-----------------------|

           D     Bm              D      Bm
E|---------------------|-----------------------|
B|---------------------|-----------------------|
G|--------------11-----|--------------11-------|
D|--7-7-7-8-9------9---|--7-7-7-8-9------9-----|
A|---------------------|-----------------------|
E|---------------------|-----------------------|

           Em     A7              Em          A7            D
E|---------------------|----------------------------------------|
B|---------------------|-----------10-8-------------------------|
G|--------------12-----|----------------11-9----------------6-7-|
D|--7-7-7-8-9------11--|--7-7-7-7-------------7-----7-7--9------|
A|---------------------|----------------------------------------|
E|---------------------|----------------------------------------|


Requinto en octava:

               Em     A7                Em     A7
E|------------------15----|------------------15----|
B|--10-10-10-11-12-----14-|--10-10-10-11-12-----14-|
G|------------------------|------------------------|
D|------------------------|------------------------|
A|------------------------|------------------------|
E|------------------------|------------------------|

                D     Bm                D      Bm
E|------------------14----|------------------14----|
B|--10-10-10-11-12-----12-|--10-10-10-11-12-----12-|
G|------------------------|------------------------|
D|------------------------|------------------------|
A|------------------------|------------------------|
E|------------------------|------------------------|

              Em     A7
E|-----------------15------|
B|-10-10-10-11-12-----14---|
G|-------------------------|
D|-------------------------|
A|-------------------------|
E|-------------------------|

               Em            A7                D
E|---------------17-15--14---------------------------|
B|-------------------------17-----------------14-15--|
G|-14-14-14-14-----------------14---14-14--16--------|
D|---------------------------------------------------|
A|---------------------------------------------------|
E|---------------------------------------------------|
00:00 / 00:00
Otros videos de esta canción
Repetir
Otros videos de esta canción
2.017 exhibiciones
    • ½ Tono
    • Am
    • Bbm
    • Bm
    • Cm
    • C#m
    • Dm
    • Ebm
    • Em
    • Fm
    • F#m
    • Gm
    • G#m
  • Agregar a la lista

Afinación de cifrado

Afinador online

    00:00 / 00:00
    OK