Cifra Club

A Boy Brushed Red Living In Black And White

Underoath

Tab de bajo: Principal
Já pensou em usar uma coleção de roupas do Cifra Club? Responda as perguntas abaixo e nos ajude nessa missão! →
intro
G --------------------------------------------------------|1x
D --------------------------------------------------------|
A 444-4-444-4--0000-0-0000-0--2222-2-2222-2---------------|
D ------------------------------------------4444-4-4444-4-|

verse
G -----------------------------------------------------------------------|2x
D -----------------------------------------------------------------------|
A 4444444444444444--0000000000000000--2222222222222222-------------------|
D -----------------------------------------------------4444444444444444--|

intro 2x

chorus
G ------------------------------------------------------------------------------|2x
D ------------------------------------------------------------------------------|
A 00-0000-00-000000000----------------------------------------------------------|
D --------------------44-4444-44-4444-44444444----------------------------------|

intro again 1x
chrorus 2
G ------------------------------------------------------------------------------|2x
D ------------------------------------------------------------------------------|
A 44444--0000000-22222222-------------------------------------------------------|
D -----------------------44444444-----------------------------------------------|

verse 2x
chorus1 2x
intro1x
chorus2 2x

breakdown
G ----------------------------------------------------------------------|1x
D ----------------------------------------------------------------------|
A 4444-44-0000-00-2222-22--------44444444--00000000--22222222-----------|
D -----------------------444-44------------------------------44444444---|

choruse 2 2x
intro 2x
Composición de Tim McTague / Underøath
56 vistas

0 comentarios

Ver todos los comentarios

¿Lograste tocar?

1 Tocaron 0 Aún no

¡Graba un video tocando A Boy Brushed Red Living In Black And White y envíanoslo!

00:00 / 00:00
Outros vídeos desta música
Repetir Calidad Automático
Outros vídeos desta música
00:00 / 00:00
Automático
OK