Cifra Club

A Fault Line a Fault Of Mine

Underoath

Cifrado: Principal (guitarra y guitarra eléctrica)
Já pensou em usar uma coleção de roupas do Cifra Club? Responda as perguntas abaixo e nos ajude nessa missão! →
tono: G
Intro:

Guitarra 1

E|--8-----12-10-------8-----12-10-------|
B|-----10--------12b------10------------|
G|---------------------------------10b--|
D|--------------------------------------|  (2x)
A|--------------------------------------|
E|--------------------------------------|

Intro
Guitarra 2(tremelo pick

E|----------------|
B|----------------|
G|-7--14---9--10--|
D|----------------|  (4x)
A|----------------|
E|----------------|




Guitarra 1
(Could this be real)
Give slight vibrato

E|--------|
B|--------|
G|--(9)b--|Listen carefully
D|--------|  (2x)
A|--------|
E|--------|

Guitarra 2:(0:30) Fade in



Refrão 1
Both Guitars

E|----------------------------------------------|
B|----------------------------------------------|
G|-9----9----9----9----9----9----9--------------|
D|-10---10---10---10---10---10---10-------------|  (2x)
A|-8----7----7----8----8----7----7----5-5-5555--|
E|------7-------------------7-------------------|



Verso
Guitarra 2(tremelo pick)

E|----------------|
B|----------------|
G|-7--14---9--10--|
D|----------------| (4x)
A|----------------|
E|----------------|


Verso
Guitarra 1
(1:02)

E|-----------|---13~----13-------|
B|-----------|-17--17~----17-15--|
G|-sd--2su---|-------------------|
D|-----------|-------------------|  (4x)
A|-----------|-------------------|
E|-----------|-------------------|

Refrão 2:Parte 1
Ambas Guitarras
Repetir apenas uma vez  

E|----------------------------------------------|
B|----------------------------------------------|
G|-9----9----9----9----9----9----9--------------|
D|-10---10---10---10---10---10---10-------------|
A|-8----7----7----8----8----7----7----5-5-5555--|
E|------7-------------------7-------------------|

Refrão 2:Parte 2
Guitarra 1

E|-17-15-------15-17---17(17)--------|
B|-------18-17------17--------17-17--|
G|-----------------------------------|
D|-----------------------------------|  (3x)
A|-----------------------------------|
E|-----------------------------------|

Refrão 2:Parte 2 
Guitarra 2

E|---------------------------------------|
B|---------------------------------------|
G|-9----9----9----9----9----9----9----9--|
D|-10---10---10---10---10---10---10---10-|
A|-8----7----7----8----8----7----7----7--|
E|------7-------------------7------------|

Interlúdio:Parte 1
Ambas Guitarras

E|--------------------|
B|--------------------|
G|----------------2~--|
D|-5--5--5--5--5--2~--|
A|-3--3--3--3--5--0~--|
E|-3--2--3--2--5------|

Interlúdio:Parte 2
Guitarra 2
(1:50)

E|--------------|
B|--------------|
G|--------------|
D|--------------|   (6x)
A|-0----5-3-/8--|
E|--------------|

Interlúdio:Parte 2
Guitarra 1(com algum atraso)
E|-------------------|
B|-3h5--5---------3--|
G|--------0-0--5-----|
D|-------------------|  (6x)
A|-------------------|
E|-------------------|

Interlúdio:Parte 2
Guitarra 3
(2:01)

E|--5-----|
B|---5----|
G|----5~--|
D|--------|  (8x)
A|--------|
E|--------|


Final
Guitarra 2

E|----|---------------------|
B|----|---------------------|
G|-2--|-2222~------5555-----|
D|-2--|-2222~--000-5555--3--|repita o quanto for necessário
A|-0--|-0000~--000-3333--3--|
E|----|--------000-------3--|
   .                               

Final
Guitarra 1

E|---|---------------------|
B|---|---------------------|
G|-2-|-5555~--444-2222--7--|
D|-2-|-xxxx~--xxx-xxxx--x--|repita o quanto for necessário
A|-0-|-3333~--222-0000--5--|
E|---|---------------------|
Composición de Underøath
Colaboración y revisión:
  • Rafael
17 vistas
    • ½ Tono
    • A
    • Bb
    • B
    • C
    • Db
    • D
    • Eb
    • E
    • F
    • F#
    • G
    • Ab
  • Agregar a la lista

    0 comentarios

    Ver todos los comentarios

    ¿Lograste tocar?

    0 Tocaron 0 Aún no

    ¡Graba un video tocando A Fault Line a Fault Of Mine y envíanoslo!

    00:00 / 00:00
    Outros vídeos desta música
    Repetir Calidad Automático
    Outros vídeos desta música
    00:00 / 00:00
    Automático
    OK