Cifra Club

Eu Vou Tu Vai (part. Tirullipa / GKAY / Carlinhos Maia )

Whindersson Nunes

Tablatura: Principal (guitarra)
tono: G
[Intro] A  G#7
        A  G#7
        A  G#7
        A  G#7

[Primeira Parte]

E|-5--7p5-5--7p5-4--7-4-4--7-4-5----------------------|
B|----------------------------------------------------|
G|----------------------------------------------------| (2x)
D|----------------------------------------------------|
A|----------------------------------------------------|
E|----------------------------------------------------|

A             G#7              A
 Se você não for, só você não vai
A             G#7              A
 Se você não for, só você não vai

[Refrão]

E|----------------------------------------------------|
B|----------------------------------------------------|
G|----------------------------------------------------|
D|-2-4-2-4-5-6---2-4-2-4-2-4-5------------------------|
A|----------------------------------------------------|
E|----------------------------------------------------|

Eu vou, tu vai, eu vou, tu vai
Eu vou, tu vai, vai, vai, vai, vai

E|----------------------------------------------------|
B|----------------------------------------------------|
G|----------------------------------------------------|
D|---2-4------2-4-2-4-----2-4-------------------------|
A|----------------------------------------------------|
E|-5------2------------4-------0----------------------|

E|----------------------------------------------------|
B|----------------------------------------------------|
G|----------------------------------------------------|
D|---2-4------2-4-2-4-----2-4-----2-4-2-4-------------|
A|----------------------------------------------------|
E|-5------2------------4-------0----------------------|

E|----------------------------------------------------|
B|----------------------------------------------------|
G|----------------------------------------------------|
D|---2-4------2-4-2-4-----2-4-------------------------|
A|----------------------------------------------------|
E|-5------2------------4-------0----------------------|

Eu vou, tu vai, eu vou, tu vai
Eu vou, vai, vai, vai, vai, vai
Eu vou, tu vai, eu vou, tu vai
Eu vou, vai, vai, vai, vai, vai
Eu vou, tu vai, eu vou, tu vai
Eu vou, vai, vai, vai, vai, vai

[Segunda Parte]

E|----------------------------------------------------|
B|----------------------------------------------------|
G|----------------------------------------------------|
D|------------9--------9------------------------------|
A|----------7---7-6-5----5-4-2---2-4p2----------------|
E|--5-7-8-9-------------------------------------------|

Chegou final de semana e você não quer sair

Inventando desculpa que o seu crush não quer ir

E|----------------------------------------------------|
B|----------------------------------------------------|
G|----------------------------------------------------|
D|----------------------------------------------------|
A|-4-7/9-7-5------4--7/9-7-5--------------------------|
E|----------------------------------------------------|

Os parça já tão tudo esperando

Taquipariu, doido! Olha o zap, tá bombando

E|----------------------------------------------------|
B|----------------------------------------------------|
G|----------------------------------------------------|
D|------------9--------9------------------------------|
A|----------7---7-6-5----5-4-2---2-4p2----------------|
E|--5-7-8-9-------------------------------------------|

Bora todo mundo cair na fuleiragem

Até os cachorros lá da vila vai cair na sacanagem

[Primeira Parte]

A             G#7              A
 Se você não for, só você não vai
A             G#7              A
 Se você não for, só você não vai
A             G#7              A
 Se você não for, só você não vai
A             G#7              A
 Se você não for, só você não vai

[Refrão]

E|----------------------------------------------------|
B|----------------------------------------------------|
G|----------------------------------------------------|
D|-2-4-2-4-5-6---2-4-2-4-2-4-5------------------------|
A|----------------------------------------------------|
E|----------------------------------------------------|

Eu vou, tu vai, eu vou, tu vai
Eu vou, tu vai, vai, vai, vai, vai

E|----------------------------------------------------|
B|----------------------------------------------------|
G|----------------------------------------------------|
D|---2-4------2-4-2-4-----2-4-------------------------|
A|----------------------------------------------------|
E|-5------2------------4-------0----------------------|

E|----------------------------------------------------|
B|----------------------------------------------------|
G|----------------------------------------------------|
D|---2-4------2-4-2-4-----2-4-----2-4-2-4-------------|
A|----------------------------------------------------|
E|-5------2------------4-------0----------------------|

E|----------------------------------------------------|
B|----------------------------------------------------|
G|----------------------------------------------------|
D|---2-4------2-4-2-4-----2-4-------------------------|
A|----------------------------------------------------|
E|-5------2------------4-------0----------------------|

Eu vou, tu vai, eu vou, tu vai
Eu vou, vai, vai, vai, vai, vai
Eu vou, tu vai, eu vou, tu vai
Eu vou, vai, vai, vai, vai, vai
Eu vou, tu vai, eu vou, tu vai
Eu vou, vai, vai, vai, vai, vai

[Segunda Parte]

E|----------------------------------------------------|
B|----------------------------------------------------|
G|----------------------------------------------------|
D|------------9--------9------------------------------|
A|----------7---7-6-5----5-4-2---2-4p2----------------|
E|--5-7-8-9-------------------------------------------|

Todo mundo já tá esperando
Já pedi seu Uber, três minutos tá chegando

E|----------------------------------------------------|
B|----------------------------------------------------|
G|----------------------------------------------------|
D|----------------------------------------------------|
A|-4-7/9-7-5------4--7/9-7-5--------------------------|
E|----------------------------------------------------|

Agora eu quero ver qual desculpa tu vai dar
Já reservei o lounge, lá é tudo open bar

[Primeira Parte]

A             G#7              A
 Se você não for, só você não vai
A             G#7              A
 Se você não for, só você não vai
A             G#7              A
 Se você não for, só você não vai
A             G#7              A
 Se você não for, só você não vai

[Refrão]

E|----------------------------------------------------|
B|----------------------------------------------------|
G|----------------------------------------------------|
D|-2-4-2-4-5-6---2-4-2-4-2-4-5------------------------|
A|----------------------------------------------------|
E|----------------------------------------------------|

Eu vou, tu vai, eu vou, tu vai
Eu vou, tu vai, vai, vai, vai, vai

E|----------------------------------------------------|
B|----------------------------------------------------|
G|----------------------------------------------------|
D|---2-4------2-4-2-4-----2-4-------------------------|
A|----------------------------------------------------|
E|-5------2------------4-------0----------------------|

E|----------------------------------------------------|
B|----------------------------------------------------|
G|----------------------------------------------------|
D|---2-4------2-4-2-4-----2-4-----2-4-2-4-------------|
A|----------------------------------------------------|
E|-5------2------------4-------0----------------------|

E|----------------------------------------------------|
B|----------------------------------------------------|
G|----------------------------------------------------|
D|---2-4------2-4-2-4-----2-4-------------------------|
A|----------------------------------------------------|
E|-5------2------------4-------0----------------------|

Eu vou, tu vai, eu vou, tu vai
Eu vou, tu vai, vai, vai, vai, vai
Batedeira, batedeira, batedeira, batedeira
Batedeira, batedeira, batedeira, batedeira
Batedeira, batedeira, batedeira, batedeira
(Eu vou, tu vai, eu vou, tu vai
Eu vou, tu vai, vai, vai, vai, vai)

[Primeira Parte]

A             G#7              A
 Se você não for, só você não vai
A             G#7              A
 Se você não for, só você não vai
A             G#7              A
 Se você não for, só você não vai
A             G#7              A
 Se você não for, só você não vai
Colaboración y revision:
  • Getúlio Vasconcelos
114 reproducciones
    • ½ Tono
    • A
    • Bb
    • B
    • C
    • Db
    • D
    • Eb
    • E
    • F
    • F#
    • G
    • Ab
  • Adicionar à lista

    0 comentarios

    Ver todos os comentários

    ¿Conseguiste tocar?

    0 Tocaram 0 Ainda não

    Grave um vídeo tocando Eu Vou Tu Vai (part. Tirullipa / GKAY / Carlinhos Maia ) e nos envie!

    00:00 / 00:00
    outros vídeos desta música
    repetir qualidade Automático
    Outros vídeos desta música
    00:00 / 00:00
    Automático
    OK