Cifra Club

All Night Dance Parties In The Undeground

Alesana

Tablatura: Principal (guitarra)
tono: A
     E |-----------------12------9-10--|
      B|-10-----10---------------------|
      G|----9-7----9-7-9----9-10-------|
      D|-------------------------------|
      A|-------------------------------|
      D|-------------------------------|

      E|----------------------------------------------12-9-10----|
      B|-----10------------------------------------10------------|
      G|-7-9----9-7------------------------------9---------------|
      D|---------------------------------------------------------|
      A|---------------------------------------------------------|
      D|---------------------------------------------------------|

      E|------------------------------------------|
      B|-----10-----------------------------------|
      G|-7-9----9-7-------------------------------|
      D|----------------8888888888----------------|
      A|----------------8888888888----------------|
      D|----------------8888888888----------------|

      E|---------------------------------12-9-10----|
      B|-----10-----------------------10------------|
      G|-7-9----9-7-----------------9---------------|
      D|--------------------------------------------|
      A|--------------------------------------------|
      D|--------------------------------------------|

      E|--------------------------------------------|
      B|-----10-------------------------------------|
      G|-7-9----9-7---------------------------------|
      D|-------------------8888888888---------------|
      A|-------------------8888888888---------------|
      D|-------------------8888888888---------------|

(refrão)
      E|-------------------------------------------------------|
      B|-------------------------------------------------------|
      G|-----------------6xxx6xxx6xxx6xx6-6/7xxx7xxx7xxx7xxx---|
      D|9999999999999999-4444444444444444---5555555555555555---|
      A|9999999999999999-4444444444444444---55555555555555555--|
      D|9999999999999999-4444444444444444---55555555555555555--|

      E|------------------------------------------|
      B|-----------------------------------7------|
      G|-7p66xxx6xxx6xxx6xxx6---------------7-----|
      D|----44444444444444444------------8----4---|
      A|----44444444444444444------------8--------|
      D|----44444444444444444------------8--------|

      E|-------------------------------------------------|
      B|-------------------------------------------------|
      G|-------------------------------------------------|
      D|-55555555--77777777--99999999--44444444----------|
      A|-55555555--77777777--99999999--44444444----------|
      D|-55555555--77777777--99999999--44444444----------|

      E|-----------------------------------------------------|
      B|-----------------------------------------------------|
      G|-----------------------------------------------------|
      D|--55555555--77777777--4444444444444444---------------|
      A|--55555555--77777777--4444444444444444---------------|
      D|--55555555--77777777--4444444444444444---------------|

      E|-------------------------------------------------|
      B|-------------------------------------------------|
      G|-------------------------------------------------|
      D|-55555555--77777777--99999999--44444444----------|
      A|-55555555--77777777--99999999--44444444----------|
      D|-55555555--77777777--99999999--44444444----------|

      E|----------------------------------------------------|
      B|----------------------------------------7-----7---7-|
      G|-----------------------------------------7-4---7-4--|
      D|-88888888--4444444--55555555--44444/88--------------|
      A|-88888888--4444444--55555555--44444/88--------------|
      D|-88888888--4444444--55555555--44444/88--------------|

Composição de Shawn Milke
Colaboración y revision:
  • James Johny
86 reproducciones
    • ½ Tono
    • A
    • Bb
    • B
    • C
    • Db
    • D
    • Eb
    • E
    • F
    • F#
    • G
    • Ab
  • Adicionar à lista

    0 comentarios

    Ver todos os comentários

    ¿Conseguiste tocar?

    0 Tocaram 0 Ainda não

    Grave um vídeo tocando All Night Dance Parties In The Undeground e nos envie!

    00:00 / 00:00
    outros vídeos desta música
    repetir qualidade Automático
    Outros vídeos desta música
    00:00 / 00:00
    Automático
    OK