Cifra Club

La Petisita Culona

Bersuit Vergarabat

Cifrado: Principal (guitarra y guitarra eléctrica)
tono: D
E|-13-12-10-8-10-12-12-11-10----------------- 
B|---------------------------13-13-13-13-13-- 
G|------------------------------------------- 
D|------------------------------------------- 
A|------------------------------------------- 
E|------------------------------------------- 

E|-12-10-8-7-6-5-5-4-3-1-1-3-6- 
B|----------------------------- 
G|----------------------------- 
D|----------------------------- 
A|----------------------------- 
E|----------------------------- 

E|------6-------6-------6-------6-------6-------6- 
B|------------------------------------------------ 
G|-6-->7---6-->7---6-->7---6-->7---6-->7---6-->7-- 
D|------------------------------------------------ 
A|------------------------------------------------ 
E|------------------------------------------------ 

E|---------13---------13--------13----------13---------13-- 
B|--------------------------------------------------------- 
G|-13-->14----13-->14----13-->14----13-->14----13-->14----- 
D|--------------------------------------------------------- 
A|--------------------------------------------------------- 
E|--------------------------------------------------------- 

E|-8-8-7-6-5-5-4-3-1-0-1-0---------- 
B|-8-8-7-6-5-5-4-2-1-------3-2-0---- 
G|-------------------------------2-- 
D|---------------------------------- 
A|---------------------------------- 
E|----------------------------------

00:00 / 00:00
Otros videos de esta canción
Repetir
Otros videos de esta canción
Composición de Righi / Verenzuela
Colaboración y revisión:
  • Fender
156 vistas
    • ½ Tono
    • A
    • Bb
    • B
    • C
    • Db
    • D
    • Eb
    • E
    • F
    • F#
    • G
    • Ab
  • Agregar a la lista

    0 comentarios

    Ver todos los comentarios
    00:00 / 00:00
    OK