Cifra Club

Aprenda

Murgitas Del Sur

Bersuit Vergarabat

Tablatura: Principal (guitarra)
tono: A
Murguita del Sur 

 1-------2------2-------0--0------x 
2-------2------2-------0--0------x 
3-------2------2-------1--1------x   X4 
4--------------------------------x 
5-----------4--------------------x 
6----2---------------0-----------x 

Cuatro ebrios se lo llevan al rockero, otra vez ha fracasado el fune- 
1-------2------2-------0--0---x 
2-------2------2-------0--0---x 
3-------2------2-------1--1---x 
4-----------------------------x   x3 
5-----------4-----------------x 
6----2---------------0--------x 

          ral         en  el  barrio    se    relamen     las    pancartas 
1-------2------2-------2---2-----2-----2---------0--------------x 
2-------3------3-------2---2-----3-----3------------------------x 
3-------4------4-------2---2-----4-----4------------------------x 
4-------------------------------------------3-------------------x 
5-----------2------------------------2--------4-----------------x 
6---2---------------2----------2--------------------------------x 

                                       Avivando al modelo para armar 
1-------2------2------2------2---------5--------5--4------2-----x 
2-------2------2------2------2---------5--------7--6------2-----x 
3-------2------2------2------2---------6--------7--6------2-----x 
4------------------3------2---------------------7--6------4-----x 
5-----------4-----------------------------------5--4------4-----x 
6----2---------------0---------------5---4------5--4------2-----x 

F#m 

Baila, baila, el boca en boca está de faso 
                            Bm 
pero esta vez el muerto regresó 
                                    F#m 
y sentía que era extraño en esta orquesta 
        G#                   F#m   E (2 cortes) 
que aburría de sonar en Sol mayor. 
      A 
¿Por qué, ese palo que te amasa, 

que te afofa, que te aplasta, 
                    E 
vos lo usás para matar?. 
    D 
Despué, cuando ya no queda nada, 

no hay más ojos, no hay más manos, 
                F#m 
lo querés acariciar ... 
        D        F#m 
No hay nada, lo amás 
        D            E 
No hay nada, no queda nada ... 

F#m 
Oficinas alistando predadores 
                                Bm 
en las radios incitando al festival, 
                                 F#m 
que recuerda por primera a un hombre 
        G# 
que la gente hoy está queriendo más ... 
   F#m 
Con el tiempo se nos fue para la cresta 
                             Bm 
de una ola que no para de crecer 
                                 F#m 
hoy su cara está en todas las remeras 
        G#                  F#m    E2) 
es un muerto que no para de nacer ... 
    LA 
¿Cuál es?, kamikazes de otras almas 
aburridos en sus casas 
                     E 
no se animan ni a cantar ... 
     D 
Después, alucinan que planea un heroe de otras 
                          F#m 
tierras y lo viene a rescatar ... 
 D             F#m 
Es esa, si no está 
  D           F#m 
la jeta, vos armás, 
   D               E 
una careta con tus ganas ... 
Amén! 

 Punteo 

1----------------------------------------------------------------x 
2----------------------------------------------------------------x 
3----------------------------------------------------------------x 
4--------------6-77-------4-66---2-44----0-22-----2--------------x 
5-----5-77--9--------------------------------------4-55--4-2-4-5-x 
6-7-9------------------------------------------------------------x 

1--------------------------------------------------------------------x 
2--------------------------------------------------------------------x 
3------------------------------4-------------4---------------4-------x 
4-7-6-7-9-6-------6-76-4-6-7-----676--4-6-7-----676--4-6-7-----677-44x 
5---------------7----------------------------------------------------x 
6--------------------------------------------------------------------x 

1--------------------------------------------------------------x 
2--------------------------------------------------------------x 
3--------------------------------------------------------------x 
4-6-77---679-77---6-7-999-7-11-9---6-7-999-7--9/11/9----9/11/9-x 
5--------------------------------------------------------------x 
6--------------------------------------------------------------x 

       D 
Cuatro ebrios se lo llevan al rockro, 
       E 
se lo llevan para siempre 
se deforma y pronto vuelve. 
        E                          D     F#m 
... se deforma y pronto vuelve...
Colaboración y revision:
  • Augusto Gonçalves
4.432 reproducciones
    • ½ Tono
    • A
    • Bb
    • B
    • C
    • Db
    • D
    • Eb
    • E
    • F
    • F#
    • G
    • Ab
  • Adicionar à lista

    0 comentarios

    Ver todos os comentários
    00:00 / 00:00
    outros vídeos desta música
    repetir qualidade Automático
    Outros vídeos desta música
    00:00 / 00:00
    Automático
    OK