Cifra Club

Changes

Black Sabbath

Cifrado: Principal (guitarra y guitarra eléctrica)
Selo Cifra Club: esta cifra foi revisada para atender aos critérios oficiais da nossa Equipe de Qualidade.
tono: C
[Intro] C  F/C  C  Dm  C  

[Tab - Intro]

E|------------3---------5--5---3-------------3-------5--5---3-|
B|--------5-------------6--6---5---------5-----------6--5---5-|
G|------5---------------5--5---5-------5-------------5--5---5-|
D|----5--------------5---------------5------------5-----------|
A|----------------3-----------------------------3-------------|
E|------------------------------------------------------------|

[Primeira Parte]

[Tab - Primeira Parte]

E|------------3---------5--5---3-------------3-------5--5---3-|
B|--------5-------------6--6---5---------5-----------6--5---5-|
G|------5---------------5--5---5-------5-------------5--5---5-|
D|----5--------------5---------------5------------5-----------|
A|----------------3-----------------------------3-------------|
E|------------------------------------------------------------|

E|---1--1---0--1-------0--------0------0--------0-------------|
B|---3--3---3--3-------1--1--1--1------1--1--1--1-------------|
G|---2--2---2--2-------0--2--2--0------0--2--2--0-------------|
D|---0--0---0--0-------2--3--3--2------2--3--3--2-------------|
A|---------------------3--3--3--3------3--3--3--3-------------|
E|------------------------------------------------------------|

C            F/C C             F/C C 
I feel unhappy,    I feel so sad
      Dm                            C    F/C C 
I lost the best friend that I ever had
              F/C C               F/C C 
She was my woman,   I loved her so
              Dm                     C  F/C  C 
But it's too late now, I've let her go
F      Em             Dm   
  I'm going through changes
F      Em              Dm      
  I'm going through changes

( F  Em  Dm  G  F  Am  G  Am  )

 C             F/C C                F/C  C 
We shared the years,     we shared each day
     Dm                       C  F/C  C 
In love together we found a way
                 F/C C               F/C  C 
But soon the world    had its evil way
             Dm       C              F/C  C 
My heart was blinded,  Love went astray
F      Em             Dm   
  I'm going through changes
F      Em              Dm      
  I'm going through changes

( F  Em  Dm  G  F  Am  G  Am  )

         C    F/C C         F/C  C 
It took so long      to realize
      Dm                         C     F/C  C 
And I can still hear her last goodbyes
           F/C C                     F/C  C 
Now all my days   are filled with tears
           Dm                         C     F/C  C 
Wish I could go back and change these years
F      Em             Dm   
  I'm going through changes
F      Em              Dm      
  I'm going through changes

[Final] F  Em  Dm  G  F  Am
Otros videos de esta canción
    146.377 exhibiciones
      • ½ Tono
      • A
      • Bb
      • B
      • C
      • Db
      • D
      • Eb
      • E
      • F
      • F#
      • G
      • Ab
    • Agregar a la lista

    Afinación de cifrado

    Afinador online

      OK