Cifra Club

Atomic Solo

Blondie

Tab de bajo: Principal
Acompaña nuestras novedades de Cifra Club en español.
¡Sigue nuestro perfil en Instagram!
Not seen any tab for this bass solo so had a go myself, this is more than likely 
wrong! So would appreciate any "real" bassists had a look at this themselves, it is a real cool 
though, so should be fun checking it out anyways!?!




G|-------7tr8------7779----7-----------------------7/9\8/9---9p79-|
D|--3/9 7-------\------79---97----------7\5--5-779----------------|
A|----------------------------10-7---5/7---57-7-------------------|
E| -------------------------------5-7-----------------------------|

G|---------------------4-7-4-7-9~-74------------|
D|-97--7--------5-5-5-7-------------2-----------|
A|---10-10-7-5-7-7-7----------------------------|
E|----------------------------------------------|

=================================================================
10 = fret 10

shastaman
Compositor não encontrado.
34 vistas

0 comentarios

Ver todos los comentarios

¿Lograste tocar?

0 Tocaron 0 Aún no

¡Graba un video tocando Atomic Solo y envíanoslo!

00:00 / 00:00
Outros vídeos desta música
Repetir Calidad Automático
Outros vídeos desta música
00:00 / 00:00
Automático
OK