Cifra Club

Callejero de Boedo

Callejeros

Cifrado: Principal (guitarra y guitarra eléctrica)
tono: Ebm
INTRO:

E|-------------------------------------------|
B|-------------------------------------------|
G|--------3-4-6-4-3-3-3h4p3-------------------|
D|---3h4-------------------5-4---------------|
A|-----------------------------5-4-2-1-------|
E|-------------------------------------3-2~--|

E|-------------------------------|
B|-------------------------------|
G|-------3-4-6-4-3~----3-4-6-4-3~-|
D|----4-------------4------------|
A|-------------------------------|
E|-------------------------------|

E|---------------------------------------------|
B|---------------------------------------------|
G|-------3-4-6-4-3-3-3h4p3----------------------|
D|---5h4-------------------5-4---------------4-|
A|-----------------------------5-4-2-1-------4-|
E|-------------------------------------3-2~--2-|


(FD NA A  BATERÍA)

e)|----------------------------------------------------------------|
B)10h11----------------------------------------------------------- X2
G)------13-10-10-11--13-13-11-10-11-13--15-15--13-11-11-13-11-10~-
D)----------------------------------------------------------------
A)---------------------------------------------------------------- X2
e)|----------------------------------------------------------------|

    A#   B
E|--6----7----|
B|--6----7----|
G|--7----8----|
D|--8----9----|
A|--8----9----|
E|--6----7----|




 A#                  B
Ahora que estas encerrado
     F#                      C#
y anclado en las sombras sin mas
 A#                         B
Ahora que el cielo es cielorrazo
       F#                  C#
no hay caso no te escuchan más


      F#            C#
San Lorenzo va a jugar
      D#m              C#
Y vos no vas a poder estar
     F#          C#
En silencio llorarás
       D#m             C#
no hay donde puedas escapar


  A#                         B
Devoto no es un viaje de egresados
        F#              C#
ni el sueño dorado de mamá y papá
       A#             B
Pero peor es quedar tirado
                    F#                    C#
En la calle de un balazo, sangrando sin parar


     F#           C#
Callejeros va a tocar
     D#m             C#
La milonga que te trajo acá
     F#          C#
en silencio llorarás
        D#m             C#
no hay donde puedas escapar


   G  O:

E|-----------------------------------------------------------|
B|---------6-7-9-7-6-7--9-7-7-7-9-9h11-11-11-11-9-7-7-6---6--|
G|-----6h7----------------------------------------------8----|
D|-8h9-------------------------------------------------------|
A|-----------------------------------------------------------|
E|-----------------------------------------------------------|

E|----5s6-66-66---5s6-66-66---6s7-77-77--6s7-77-77--|
B|----5s6-66-66---5s6-66-66---6s7-77-77--6s7-77-77--|
G|--------------------------------------------------|
D|--------------------------------------------------|
A|--------------------------------------------------|
E|--------------------------------------------------|

                      (En guitarra el Señor Maximiliano Djerfy!)
E|---------------------------------|
B|--7-6-7-9-7-9-9h11--9-7-7-6---6--|
G|----------------------------8----|
D|---------------------------------|
A|---------------------------------|
E|---------------------------------|

 El infierno tiene Dirección
E|----7---6---11--9--7--6--|
B|-------------------------|
G|--8---7---7s11--9--8--6--|
D|-------------------------|

  Y vos la conoces bien
E|----7---6---11--9--7--6--|
B|-------------------------|
G|--8---7---7s11--9--8--6--|
D|-------------------------|

B         A#   B         A#
por no sentir, por no sentir
B           A#    D#m           C#
El calor de una mujer, de una mujer

     F#           C#
Callejeros va a tocar
     D#m             C#
La milonga que te trajo acá
     F#          C#
en silencio llorarás
        D#m            C#
no hay donde puedas escapar

      F#          C#
San Lorenzo va a jugar
      D#m              C#
Y vos no vas a poder estar
     F#          C#
En silencio llorarás
       D#m              C#
no hay donde puedas escapar

FINAL

E|---------------------------------------------------------|
B|-6-6-7-9-7--6-7-9-9h11-11---9-7-9-7-6-7-6----------------|
G|------------------------------------------7-8-8-7-8-8-8~-|
D|---------------------------------------------------------|
A|---------------------------------------------------------|
E|---------------------------------------------------------|

E|-----------------------------------------------------|
B|-6-7-9-9--7-6-7-9-9h11-11-9-11-12-11--6-6h7-6--------|
G|----------------------------------------------7-7h8--|
D|-----------------------------------------------------|
A|-----------------------------------------------------|
E|-----------------------------------------------------|
00:00 / 00:00
Otros videos de esta canción
Repetir
Otros videos de esta canción
Composición de Callejeros
148 vistas
    • ½ Tono
    • Am
    • Bbm
    • Bm
    • Cm
    • C#m
    • Dm
    • Ebm
    • Em
    • Fm
    • F#m
    • Gm
    • G#m
  • Agregar a la lista

    0 comentarios

    Ver todos los comentarios

    ¿Lograste tocar?

    0 Tocaron 0 Aún no

    ¡Graba un video tocando Callejero de Boedo y envíanoslo!

    00:00 / 00:00
    OK