Cifra Club

Pro Dia Nascer Feliz

Cazuza

Tab de bajo: Principal
Selo Cifra Club: esta cifra foi revisada para atender aos critérios oficiais da nossa Equipe de Qualidade.
tono: Afinación:
(todo dia a insônia...)

G----------------------------------------
D---------------------------------------- 1X
A--------55555-----------5---------------
E---55555-----1111111111--5-5555555555---


G----------------------------------------
D---------------------------------------- 1X
A--------55555-----------5---------------
E---55555-----1111111111--5--------------

(todo dia tem a hora da ...)

G----------------------------
D---------------------------- 1X
A---------------------55555--
E---33333-11111-33333--------

(agora vão bora meu bem...)

G------------------------
D------------------------
A------------------------
E---11111----------------

Estamos meu be por um ...

G--------------------------------------------------------------------------
D-------------------------------------------------------------------------- 2X
A--------------------22-33-4-55555-----2-3-4-5555---2-3-4-5---2-3-4-5------
E---11111-5-5-5-5-33---------------333-----------333-------333-------11111-

BASE NOVAMNETE


G----------------------------------------
D---------------------------------------- 1X
A--------55555-----------5---------------
E---55555-----1111111111--5-5555555555---


G----------------------------------------
D---------------------------------------- 1X
A--------55555-----------5---------------
E---55555-----1111111111--5--------------

(todo dia tem a hora da ...)

G----------------------------
D---------------------------- 1X
A---------------------55555--
E---33333-11111-33333--------

(agora vão bora meu bem...)

G------------------------
D------------------------
A------------------------
E---11111----------------

Estamos meu be por um ...

G--------------------------------------------------------------------------
D-------------------------------------------------------------------------- 2X
A--------------------22-33-4-55555-----2-3-4-5555---2-3-4-5---2-3-4-5------
E---11111-5-5-5-5-33---------------333-----------333-------333-------11111-

PONTE (OH OH OH OH OH ...)

G------------------
D------------------
A--------5--------- ALGUMAS VEZES
E---11111-5555555--


G----------------------------------------
D---------------------------------------- 1X
A--------55555-----------5---------------
E---55555-----1111111111--5-5555555555---


G----------------------------------------
D---------------------------------------- 1X
A--------55555-----------5---------------
E---55555-----1111111111--5--------------

(todo dia tem a hora da ...)

G----------------------------
D---------------------------- 1X
A---------------------55555--
E---33333-11111-33333--------

(agora vão bora meu bem...)

G------------------------
D------------------------
A------------------------
E---11111----------------

Estamos meu be por um ...

G--------------------------------------------------------------------------
D-------------------------------------------------------------------------- 2X
A--------------------22-33-4-55555-----2-3-4-5555---2-3-4-5---2-3-4-5------
E---11111-5-5-5-5-33---------------333-----------333-------333-------11111-

BASE NOVAMNETE


G----------------------------------------
D---------------------------------------- 1X
A--------55555-----------5---------------
E---55555-----1111111111--5-5555555555---


G----------------------------------------
D---------------------------------------- 1X
A--------55555-----------5---------------
E---55555-----1111111111--5--------------

(todo dia tem a hora da ...)

G----------------------------
D---------------------------- 1X
A---------------------55555--
E---33333-11111-33333--------

(agora vão bora meu bem...)

G------------------------
D------------------------
A------------------------
E---11111----------------

Estamos meu be por um ...

G--------------------------------------------------------------------------
D-------------------------------------------------------------------------- 2X
A--------------------22-33-4-55555-----2-3-4-5555---2-3-4-5---2-3-4-5------
E---11111-5-5-5-5-33---------------333-----------333-------333-------11111-

FIM!
Otros videos de esta canción
    18.378 exhibiciones

    Afinación de cifrado

    Afinador online

    OK