Cifra Club

Have You Ever Seen The Rain

Creedence Clearwater Revival

Tab de bajo: Principal
Intro:
G|-----------------5-4-2-0-0-------------------------
D|-7-5-----------------------------------------------
A|-----7-7---3-3-3-----------------------------------
E|---------3-----------------------------------------

Primeira parte:
G|---------------------------------------------------
D|-------4/5-------4/5-------4/5-----2-3-------------
A|-3-3-3-----3-3-3-----3-3-3-----3-3-----------------
E|---------------------------------------------------

G|-------6/7-------6/7-------------------------------
D|-5-5-5-----5-5-5-----------4/5-------4/5-----------
A|---------------------3-3-3-----3-3-3---------------
E|---------------------------------------------------

G|---------------------------------------------------
D|-------4/5-------4/5-------4/5-----2-3-------------
A|-3-3-3-----3-3-3-----3-3-3-----3-3-----------------
E|---------------------------------------------------

G|-------6/7-------6/7-------------------------------
D|-5-5-5-----5-5-5-----------4/5-------2-------------
A|---------------------3-3-3-----3-3-3---------------
E|---------------------------------------------------

Someone told me long ago
There's a calm before the storm
I know, it's been comin' for some time

When it's over, so they say
It will rain a sunny day
I know, shinin' down like water

Refrão:

G|-------------5-5-4-4-2-2-0-0-----------------------
D|-3-3-3-5-5-5---------------------------------------
A|---------------------------------------------------  (2x)
E|---------------------------------------------------

G|-------------------------5-4-2-0-0-----------------
D|-3-3-3-5-5-5-----4/5-4/5---------------------------
A|-------------3-3-----------------------------------
E|---------------------------------------------------

(...)
I wanna know, have you ever seen the rain?
I wanna know, have you ever seen the rain?
Comin' down a sunny day

Segunda parte:

G|---------------------------------------------------
D|-------4/5-------4/5-------4/5-----2-3-------------
A|-3-3-3-----3-3-3-----3-3-3-----3-3-----------------
E|---------------------------------------------------

G|-------6/7-------6/7-----------5-4-2-0-0-----------
D|-5-5-5-----5-5-5-----------4/5---------------------
A|---------------------3-3-3-------------------------
E|---------------------------------------------------

G|---------------------------------------------------
D|-------4/5-------4/5-------4/5-----2-3-------------
A|-3-3-3-----3-3-3-----3-3-3-----3-3-----------------
E|---------------------------------------------------

G|-------6/7-------6/7-------------------------------
D|-5-5-5-----5-5-5-----------4/5-----0-2-------------
A|---------------------3-3-3-----3-3-----------------
E|---------------------------------------------------

(...)
And forever, on it goes
Through the circle, fast and slow
I know, it can't stop, I wonder

I wanna know, have you ever seen the rain?
I wanna know, have you ever seen the rain?
Comin' down a sunny day

Repetição do refrão:

G|-----------------5-5-4-4-2-2-0-0-------------------
D|-3-3-3-3-5-5-5-5-----------------------------------
A|---------------------------------------------------  (2x)
E|---------------------------------------------------

G|---------------------------5-4-2-0-0---------------
D|-3-3-3-3-5-5-5-5-------4/5-------------------------
A|-----------------3-3-3-----------------------------
E|---------------------------------------------------

G|-----------------5-5-4-4-2-2-0-0-------------------
D|-3-3-3-3-5-5-5-5-----------------------------------
A|---------------------------------------------------
E|---------------------------------------------------

G|---------------------5-5-4-4-2-2-0-0---------------
D|-3-3-3-3-5-5-5-5-5-5-------------------------------
A|---------------------------------------------------
E|---------------------------------------------------

(...)
I wanna know, have you ever seen the rain?
I wanna know, have you ever seen the rain?
Comin' down a sunny day

Yeah!

I wanna know, have you ever seen the rain?
I wanna know, have you ever seen the rain?
Comin' down a sunny day

Final:

G|---------------------------------------------------
D|-3-3-3-3-5-5-5-5-----4/5-4/5-7-5-------------------
A|-----------------3-3-------------7-7---3-----------
E|-------------------------------------3-------------
reproducciones 2.215
Composição: John Fogerty Colaboración y revision:
  • Filipe Marks

0 comentarios

mostrar más comentarios

¿Conseguiste tocar?

33 tocaron 0 aún no

¡Graba un vídeo tocando Have You Ever Seen The Rain y envianoslo!

00:00 / 00:00
outros vídeos desta música
repetir qualidade Automático
Outros vídeos desta música
00:00 / 00:00
Automático
Capítulos
  • Início
  • Tocando a música
  • Tocando Introdução
  • Ensinando Introdução e Final
  • Tocando Primeira Parte
  • Ensinando Primeira Parte e Segunda Parte
  • Tocando Refrão
  • Ensinando Refrão
  • Encerramento
OK