Cifra Club

A Ele a Glória

Diante do Trono

Cifrado: Rock-completo (guitarra y guitarra eléctrica)
tono: G
Riff: Em  D  C9  Em (2x)
E|-----------------------------------------------
B|-----------------------------------------------
G|-----------------------------------------------
D|-----2-2-2-2-4-5-5-----4-5-5--5-4-2--2-0-0h2-2-
A|---2-----------------2-------------------------
E|-0-----------------0---------------------------

Riff 2:
E|-----------------------------------------------
B|-----------------------------------------------
G|-9-9-9-9-11-12-12--11-12-12--12-10-9--9-7-9-9--
D|-x-x-x-x--x--x--x---x--x--x---x--x-x--x-x-x-x--
A|-7-7-7-7--9-10-10---9-10-10--10--9-7--7-5-7-7--
E|-0-0-0-0--0--0--0---0--0--0---0--0-0--0-0-0-0--

Em              D
Por que dele por Ele
     C9               Em
Para ele são todas as coisas (2x)

Refrão:
Em       C9    D
A Ele a glóóóóória
         G  D   Em
A Ele a glóóóóóória
         C9   D
A Ele a glóóóória
(Riff 3)
Pra sempre amém

Riff 4 - 2x: Em  D  C9  Em
E|--12-12-12-12-14-15-15~~14-15-15~15-14-12-12----12-12~
B|---------------------------------------------15-------
G|------------------------------------------------------
D|------------------------------------------------------
A|------------------------------------------------------
E|------------------------------------------------------

Em               D
Quão profundas riquezas
    C9                 Em
O saber eo conhecer de DEUS
Em         D          C9
Quão insondavel seu juizo
        Em
E seu caminho

(Refrão 2x)

Solo: Em  C9  D  G  D  Em  C9  D
E|---------------------------------------------------------------------------------------
B|--8-10-12-13~~12~10~~~7-8-8/10-10/12-10-8-10-8-7-8--5-7-7/8-8-8h10-8-7--7-7h8-7--------
G|--------------------------------------------------------------------------------7-7/9~~
D|---------------------------------------------------------------------------------------
A|---------------------------------------------------------------------------------------
E|---------------------------------------------------------------------------------------

Solo 2:
E|--15-17-19-20~~19~~17~~14-15-15/17-17/19-17-15-17-15-14-15~~12-14-14/15-15-15h17-15-14-14-14h15-14---------
B|--------------------------------------------------------------------------------------------------15-15/17~
G|-----------------------------------------------------------------------------------------------------------
D|-----------------------------------------------------------------------------------------------------------
A|-----------------------------------------------------------------------------------------------------------
E|-----------------------------------------------------------------------------------------------------------

Riff 5:
E|--14-14h15-14----------14-14h15-14-----------
B|--------------15-15/17-------------15-15/19--
G|---------------------------------------------
D|---------------------------------------------
A|---------------------------------------------
E|---------------------------------------------

Composición de Ana Paula Valadão
Colaboración y revisión:
  • jonilson neves
94 vistas
  • Simplificar cifrado
    • ½ Tono
    • A
    • Bb
    • B
    • C
    • Db
    • D
    • Eb
    • E
    • F
    • F#
    • G
    • Ab
  • Agregar a la lista

    0 comentarios

    Ver todos los comentarios
    00:00 / 00:00
    Otros videos de esta canción
    Repetir Calidad Automático
    Otros videos de esta canción
    00:00 / 00:00
    Automático
    OK