Cifra Club

Nadie Va A Pensar En Ti Mejor Que Yo

Ed Maverick

Cifrado: Principal (guitarra y guitarra eléctrica)
Selo Cifra Club: esta cifra foi revisada para atender aos critérios oficiais da nossa Equipe de Qualidade.
tono: G
E|---------------------------------------------------------------------------|
B|---------------------------------------------------------------------------|
G|---------------------------------------------------------------------------|
D|-----0--------0--------0-----0h2p0-----------------------------------------| x4
A|--------2--------2--------2---------0h2p0----------------------------------|
E|--3--------3--------3------------------------------------------------------|

E|---------------------------------------------------------------------------|
B|---------------------------------------------------------------------------|
G|---------------------------------------------------------------------------|
D|-----0--------0--------0--------0------------------------------------------| x2
A|--------2--------2--------2--------2---------------------------------------|
E|--3--------3--------3--------3---------------------------------------------|


[Verse 1]

  Ven a mi muñeca vamos a hacer el amor
E|---------------------------------------------------------------------------|
B|---------------------------------------------------------------------------|
G|---------------------------------------------------------------------------|
D|-----0--------0----------2----------0--------------------------------------|
A|--------2--------2----3-----3----------2-----------------------------------|
E|--3--------3---------------------3-----------------------------------------|

  Ven a mi muñeca vamos a tomar alcohol
E|---------------------------------------------------------------------------|
B|---------------------------------------------------------------------------|
G|---------------------------------------------------------------------------|
D|-----0--------0----------2----------0--------------------------------------|
A|--------2--------2----3-----3----------2-----------------------------------|
E|--3--------3---------------------3-----------------------------------------|

  Vamos a bañarnos, empaparnos en jabón
E|---------------------------------------------------------------------------|
B|---------------------------------------------------------------------------|
G|---------------------------------------------------------------------------|
D|-----0--------0----------2----------0--------------------------------------|
A|--------2--------2----3-----3----------2-----------------------------------|
E|--3--------3---------------------3-----------------------------------------|

  El día está nublado y a tu lado aquí estoy yo
E|---------------------------------------------------------------------------|
B|---------------------------------------------------------------------------|
G|---------------------------------------------------------------------------|
D|-----0--------0----------2----------0--------------------------------------|
A|--------2--------2----3-----3----------2-----------------------------------|
E|--3--------3---------------------3-----------------------------------------|

E|---------------------------------------------------------------------------|
B|---------------------------------------------------------------------------|
G|---------------------------------------------------------------------------|
D|-----0--------0--------0---------------------------------------------------|
A|--------2--------2--------2------------------------------------------------|
E|--3--------3--------3------------------------------------------------------|

  Ven a mi muñeca vamos a tomar alcohol
E|---------------------------------------------------------------------------|
B|---------------------------------------------------------------------------|
G|---------------------------------------------------------------------------|
D|-----0--------0----------2----------0--------------------------------------|
A|--------2--------2----3-----3----------2-----------------------------------|
E|--3--------3---------------------3-----------------------------------------|

  Vamos por caguamas y se disfruta mejor
E|---------------------------------------------------------------------------|
B|---------------------------------------------------------------------------|
G|---------------------------------------------------------------------------|
D|-----0--------0----------2----------0--------------------------------------|
A|--------2--------2----3-----3----------2-----------------------------------|
E|--3--------3---------------------3-----------------------------------------|

  "prendete un cigarro", dices me pongo mamón
E|---------------------------------------------------------------------------|
B|---------------------------------------------------------------------------|
G|---------------------------------------------------------------------------|
D|-----0--------0----------2----------0--------------------------------------|
A|--------2--------2----3-----3----------2-----------------------------------|
E|--3--------3---------------------3-----------------------------------------|

  El día está nublado y a tu lado aquí estoy yo
E|---------------------------------------------------------------------------|
B|---------------------------------------------------------------------------|
G|---------------------------------------------------------------------------|
D|-----0--------0----------2----------0--------------------------------------|
A|--------2--------2----3-----3----------2-----------------------------------|
E|--3--------3---------------------3-----------------------------------------|

E|---------------------------------------------------------------------------|
B|---------------------------------------------------------------------------|
G|---------------------------------------------------------------------------|
D|-----0--------0--------0---------------------------------------------------|
A|--------2--------2--------2------------------------------------------------|
E|--3--------3--------3------------------------------------------------------|

[Pre-chorus]

  Nadie va a pensar en ti mejor que yo
E|---------------------------------------------------------------------------|
B|---------------------------------------------------------------------------|
G|---------------------------------------------------------------------------|
D|-----2--------2----------0--------0--------0--------0----------------------| x4
A|--2-----2--3-----3----------2--------2--------2--------2-------------------|
E|----------------------3--------3--------3--------3-------------------------|

E|---------------------------------------------------------------------------|
B|---------------------------------------------------------------------------|
G|---------------------------------------------------------------------------|
D|-----0--------0--------0--------0------------------------------------------|
A|--------0--------0--------0--------0---------------------------------------|
E|--2--------2--------2--------2---------------------------------------------|

[Chorus]

  Pa' qué sirve hablar, no te quiero ver 
E|---------------------------------------------------------------------------|
B|---------------------------------------------------------------------------|
G|-----0--------0--------0--------0------------------------------------------|
D|--------2--------2--------2--------2---------------------------------------|
A|--3--------3--------3--------3---------------------------------------------|
E|---------------------------------------------------------------------------|
  
  De qué sirve verte si no te puedo tener aquí
E|---------------------------------------------------------------------------|
B|---------------------------------------------------------------------------|
G|-----5--------5--------5--------5------------------------------------------|
D|--------4--------4--------4--------4---------------------------------------|
A|--5--------5--------5--------5---------------------------------------------|
E|---------------------------------------------------------------------------|

                                Y verte así
E|---------------------------------------------------------------------------|
B|---------------------------------------------------------------------------|
G|---------------------------------------------------------------------------|
D|-----0--------0--------0--------0------------------------------------------|
A|--------2--------2--------2--------2---------------------------------------|
E|--3--------3--------3--------3---------------------------------------------|

E|---------------------------------------------------------------------------|
B|---------------------------------------------------------------------------|
G|-----0--------0--------0--------0------------------------------------------|
D|--------2--------2--------2--------2---------------------------------------|
A|--2--------2--------2--------2---------------------------------------------|
E|---------------------------------------------------------------------------|

  Tu cara besar, tus ojitos ver
E|---------------------------------------------------------------------------|
B|---------------------------------------------------------------------------|
G|-----0--------0--------0--------0------------------------------------------|
D|--------2--------2--------2--------2---------------------------------------|
A|--3--------3--------3--------3---------------------------------------------|
E|---------------------------------------------------------------------------|
  
  De qué sirve eso si solo quieres coger
E|---------------------------------------------------------------------------|
B|---------------------------------------------------------------------------|
G|-----5--------5--------5--------5------------------------------------------|
D|--------4--------4--------4--------4---------------------------------------|
A|--5--------5--------5--------5---------------------------------------------|
E|---------------------------------------------------------------------------|

 Y aquí                         no es así     
E|---------------------------------------------------------------------------|
B|---------------------------------------------------------------------------|
G|---------------------------------------------------------------------------|
D|-----0--------0--------0--------0------------------------------------------|
A|--------2--------2--------2--------2---------------------------------------|
E|--3--------3--------3--------3---------------------------------------------|

E|---------------------------------------------------------------------------|
B|---------------------------------------------------------------------------|
G|-----0--------0--------0--------0------------------------------------------|
D|--------2--------2--------2--------2---------------------------------------|
A|--2--------2--------2--------2---------------------------------------------|
E|---------------------------------------------------------------------------|

  Oooh
E|---------------------------------------------------------------------------|
B|---------------------------------------------------------------------------|
G|-----0--------0--------0--------0------------------------------------------|
D|--------2--------2--------2--------2---------------------------------------|
A|--3--------3--------3--------3---------------------------------------------|
E|---------------------------------------------------------------------------|
  
  Oooh
E|---------------------------------------------------------------------------|
B|---------------------------------------------------------------------------|
G|-----5--------5--------5--------5------------------------------------------|
D|--------4--------4--------4--------4---------------------------------------|
A|--5--------5--------5--------5---------------------------------------------|
E|---------------------------------------------------------------------------|

  oooooooooooooooh             Ooooohh
E|---------------------------------------------------------------------------|
B|---------------------------------------------------------------------------|
G|---------------------------------------------------------------------------|
D|-----0--------0--------0--------0------------------------------------------|
A|--------2--------2--------2--------2---------------------------------------|
E|--3--------3--------3--------3---------------------------------------------|

E|---------------------------------------------------------------------------|
B|---------------------------------------------------------------------------|
G|-----0--------0--------0--------0------------------------------------------|
D|--------2--------2--------2--------2---------------------------------------|
A|--2--------2--------2--------2---------------------------------------------|
E|---------------------------------------------------------------------------|

  y, de qué sirve hablar, no te quiero ver 
E|---------------------------------------------------------------------------|
B|---------------------------------------------------------------------------|
G|-----0--------0--------0--------0------------------------------------------|
D|--------2--------2--------2--------2---------------------------------------|
A|--3--------3--------3--------3---------------------------------------------|
E|---------------------------------------------------------------------------|
  
  De qué sirve verte si no te puedo tener aquí
E|---------------------------------------------------------------------------|
B|---------------------------------------------------------------------------|
G|-----5--------5--------5--------5------------------------------------------|
D|--------4--------4--------4--------4---------------------------------------|
A|--5--------5--------5--------5---------------------------------------------|
E|---------------------------------------------------------------------------|

                                Y verte así
E|---------------------------------------------------------------------------|
B|---------------------------------------------------------------------------|
G|---------------------------------------------------------------------------|
D|-----0--------0--------0--------0------------------------------------------|
A|--------2--------2--------2--------2---------------------------------------|
E|--3--------3--------3--------3---------------------------------------------|

E|---------------------------------------------------------------------------|
B|---------------------------------------------------------------------------|
G|-----0--------0--------0--------0------------------------------------------|
D|--------2--------2--------2--------2---------------------------------------|
A|--2--------2--------2--------2---------------------------------------------|
E|---------------------------------------------------------------------------|


  Tu cara besar, tus ojitos ver
E|---------------------------------------------------------------------------|
B|---------------------------------------------------------------------------|
G|-----0--------0--------0--------0------------------------------------------|
D|--------2--------2--------2--------2---------------------------------------|
A|--3--------3--------3--------3---------------------------------------------|
E|---------------------------------------------------------------------------|
  
  De qué sirve eso si no te puedo tener aquí
E|---------------------------------------------------------------------------|
B|---------------------------------------------------------------------------|
G|-----5--------5--------5--------5------------------------------------------|
D|--------4--------4--------4--------4---------------------------------------|
A|--5--------5--------5--------5---------------------------------------------|
E|---------------------------------------------------------------------------|

                                Y verte así
E|---------------------------------------------------------------------------|
B|---------------------------------------------------------------------------|
G|---------------------------------------------------------------------------|
D|-----0--------0--------0--------0------------------------------------------|
A|--------2--------2--------2--------2---------------------------------------|
E|--3--------3--------3--------3---------------------------------------------|

E|---------------------------------------------------------------------------|
B|---------------------------------------------------------------------------|
G|-----0--------0--------0--------0------------------------------------------|
D|--------2--------2--------2--------2---------------------------------------|
A|--2--------2--------2--------2---------------------------------------------|
E|---------------------------------------------------------------------------|

  Oooh
E|---------------------------------------------------------------------------|
B|---------------------------------------------------------------------------|
G|-----0--------0--------0--------0------------------------------------------|
D|--------2--------2--------2--------2---------------------------------------|
A|--3--------3--------3--------3---------------------------------------------|
E|---------------------------------------------------------------------------|
  
  Oooh
E|---------------------------------------------------------------------------|
B|---------------------------------------------------------------------------|
G|-----5--------5--------5--------5------------------------------------------|
D|--------4--------4--------4--------4---------------------------------------|
A|--5--------5--------5--------5---------------------------------------------|
E|---------------------------------------------------------------------------|

  oooooooooooooooh             Ooooohh
E|---------------------------------------------------------------------------|
B|---------------------------------------------------------------------------|
G|---------------------------------------------------------------------------|
D|-----0--------0--------0--------0------------------------------------------|
A|--------2--------2--------2--------2---------------------------------------|
E|--3--------3--------3--------3---------------------------------------------|
  Uooooh
E|---------------------------------------------------------------------------|
B|---------------------------------------------------------------------------|
G|-----0--------0--------0--------0------------------------------------------|
D|--------2--------2--------2--------2---------------------------------------|
A|--2--------2--------2--------2---------------------------------------------|
E|---------------------------------------------------------------------------|
Otros videos de esta canción
    6.261 exhibiciones
      • ½ Tono
      • A
      • Bb
      • B
      • C
      • Db
      • D
      • Eb
      • E
      • F
      • F#
      • G
      • Ab
    • Agregar a la lista

    Afinação da cifra

    Afinador online

      Ops (: Contenido disponible solo en portugués.
      OK