Cifra Club

Eu não sei dizer que eu não te amo

Edson e Hudson

Tablatura: Principal
reproducciones 91
Tono: A#
Solo Intro:
E|-10-8--------8~-----------|-10-11-10-8---------------|
B|------11------------------|------------11------------|                  
G|---------10---------------|---------------10--12~----|             
D|--------------------------|--------------------------|              
A|--------------------------|--------------------------|
E|--------------------------|--------------------------|

Gm           F
   Postais e cartas
   Eb
   Fotos feitas tão depressa
Bb            F          Eb
   pra se guardar e esquecer

E|--------------------------------------------|
A|--------------------------------------------|
D|----------3~~-------------------------------|
G|--2-3-2-0-----------------------------------|
B|--------------------------------------------|
E|--------------------------------------------|

Bb                  F
  Knick-knacks and souvenirs
         Eb
  In an afternoon they're out of here
Bb             F               Eb
  They'll disappear without a trace
                 Cm7             Eb          F
  But what they mean to me, can never be replaced

Refrão
              Bb          F
  Não sei não pensar em você
               Gm          Eb
  Não sei não querer só você
              Bb
  Não sei não ouvir sua voz
           F
  sempre a me dizer
   Gm              Eb
  do que o amor é capaz

              Bb              F
  Queria não lembrar ao menos
                Gm          Eb
  o que meu coração conheceu
      Gm           Am6              Eb
  Que nada aconteceu todos esses anos
         Cm7       F
  Eu não sei dizer
                   
  que eu não te amo!

  Solo Intro: Bb, F, Gm, Eb
E|-10-8--------8~-----------|-10-11-10-8---------------| 
B|------11------------------|------------11------------|
G|---------10---------------|---------------10--12~----|
D|--------------------------|--------------------------|
A|--------------------------|--------------------------|
E|--------------------------|--------------------------|

Gm                F
  Interstates and old songs
       Am6
  Like time, they go on ad on
 Bb                F               Eb
  I guess I could learn to do the same
           Gm        Am6
  Aí então dormir sozinho,
  Eb
  sem o seu corpo ao meu lado
Bb            F             Eb
  Aprender viver sem ter você
            Cm7                Eb             F
  No matter how I try, some things I can't change

Refrão
              Bb           F
  Não sei não pensar em você
                 Gm        Eb
  Não sei não querer só você
               Bb
  Não sei não ouvir sua voz
            F
  sempre a me dizer
     Gm              Eb
  do que o amor é capaz!

                 Bb           F           Gm
  I wish I could unremember everything my heart's been
         Eb
  through
      Gm          Am6            Eb
  Que nada aconteceu todos esses anos...

      Cm7       F
  Oh! It's no use
           Bb      F       Gm       Eb
  I can't unlove you

Solo: Bb, F, Gm, Eb

E|-----------------------------------------------------| 
B|------------------------------------11-13-13p-13p13p-|
G|---------------------12-10--10-12--------------------|
D|------8-10-10/12--12---------------------------------|
A|-8-10------------------------------------------------|
E|-----------------------------------------------------|

E|-----------------18----------------------------------| 
B|-13-11----18-21-----21-18---------------------18p----|
G|--------------------------19-17-15-19-17-15---18p----|
D|-----------------------------------------------------|
A|-----------------------------------------------------|
E|-----------------------------------------------------|

E|-----------------------------------------------------| 
B|-18p-18p-18-------------18---------------------------|
G|-------------15--15-19-----19-17-15----15------------|
D|------------------------------------17---------------|
A|-----------------------------------------------------|
E|-----------------------------------------------------|
                 Bb           F           Gm
  I wish I could unremember everything my heart's been
         Eb
  through

      Gm          Am6            Eb
  Que nada aconteceu todos esses anos...
 Cm7            F               Bb
  Eu não sei dizer que eu não te amo

  Solo Intro: Bb, F, Gm, Eb (2x)
E|-10-8--------8~-----------|-10-11-10-8---------------| 
B|------11------------------|------------11------------|
G|---------10---------------|---------------10--12~----|
D|--------------------------|--------------------------|
A|--------------------------|--------------------------|
E|--------------------------|--------------------------|I can´t unlove you...
Acordes para:
    Colaboración y revision:

    0 comentarios

      mostrar más comentarios

      ¿Conseguiste tocar?

      3tocaron0aún no

      ¡Graba un vídeo tocando Eu não sei dizer que eu não te amo y envianoslo!

      00:00 / 00:00
      outros vídeos desta música
      repetirqualidadeautomática
      Outro vídeos desta música
        00:00 / 00:00
        automática
        OK