Notificações Amigos pendentes

      Edson e Hudson

      Eu não sei dizer que eu não te amo

      71 reproducciones
      Tono: A#
      Solo Intro:
      
      E|-10-8--------8~-----------|-10-11-10-8---------------|(2x) Legenda: / => Slide (escorregar o dedo 
      B|------11------------------|------------11------------|                   de uma casa para outra)
      G|---------10---------------|---------------10--12~----|              p => Pull off (puxar a corda)
      D|--------------------------|--------------------------|              ~ => Vibrato (vibrar a corda)
      A|--------------------------|--------------------------|
      E|--------------------------|--------------------------|
      
      
      Bb           F   
         Postais e cartas
         Gm            
         Fotos feitas tão depressa
      Bb            F          Gm   
         pra se guardar e esquecer
      
      
      E|-----------------|
      A|-----------------|
      D|----------3~~----|
      G|--2-3-2-0--------|
      B|-----------------|
      E|-----------------|
      
      
      Bb                  F 
        Knick-knacks and souvenirs
               Gm                
        In an afternoon they're out of here
      Bb             F               Gm        
        They'll disappear without a trace
                       Gm             Eb          F
        But what they mean to me, can never be replaced
      
      Refrão
                    Bb          F  
        Não sei não pensar em você
                     Gm          Eb
        Não sei não querer só você
                    Bb
        Não sei não ouvir sua voz
                 F
        sempre a me dizer
         Gm              Eb
        do que o amor é capaz
      
                    Bb              F
        Queria não lembrar ao menos
                      Gm          Eb
        o que meu coração conheceu
            Gm                         Eb  
        Que nada aconteceu todos esses anos
               Gm       Eb
        Eu não sei dizer
                         Bb
        que eu não te amo!
      
      
      Solo Intro: Bb, F, Gm, Eb (1x)
      E|-10-8--------8~-----------|-10-11-10-8---------------| 
      B|------11------------------|------------11------------|
      G|---------10---------------|---------------10--12~----|
      D|--------------------------|--------------------------|
      A|--------------------------|--------------------------|
      E|--------------------------|--------------------------|
      
      
      Bb                F
        Interstates and old songs
             Gm            
        Like time, they go on ad on
      
      Bb                F               Gm         (*)D|--3/5/3~~------|
        I guess I could learn to do the same(*)       G|--------4/6/4~~|
      
                 Bb        F                          B|--------3/5/3~~|
        Aí então dormir sozinho,
        Gm              
        sem o seu corpo ao meu lado
      Bb            F             Eb  
        Aprender viver sem ter você
                  Gm                Eb             F
        No matter how I try, some things I can't change
      
      Refrão
                    Bb           F  
        Não sei não pensar em você
                       Gm        Eb
        Não sei não querer só você
                     Bb         
        Não sei não ouvir sua voz
                  F
        sempre a me dizer
           Gm              Eb
        do que o amor é capaz!
      
                       Bb           F           Gm               
        I wish I could unremember everything my heart's been
               Eb
        through
            Gm                      Eb
        Que nada aconteceu todos esses anos...
      
            Bb       F
        Oh! It's no use
                 Bb      F       Gm       Eb
        I can't unlove you
      
      Solo: Bb, F, Gm, Eb
      
      
      E|-----------------------------------------------------| 
      B|------------------------------------11-13-13p-13p13p-|
      G|---------------------12-10--10-12--------------------|
      D|------8-10-10/12--12---------------------------------|
      A|-8-10------------------------------------------------|
      E|-----------------------------------------------------|
      
      
      E|-----------------18----------------------------------| 
      B|-13-11----18-21-----21-18---------------------18p----|
      G|--------------------------19-17-15-19-17-15---18p----|
      D|-----------------------------------------------------|
      A|-----------------------------------------------------|
      E|-----------------------------------------------------|
      
      
      E|-----------------------------------------------------| 
      B|-18p-18p-18-------------18---------------------------|
      G|-------------15--15-19-----19-17-15----15------------|
      D|------------------------------------17---------------|
      A|-----------------------------------------------------|
      E|-----------------------------------------------------|
      
                       Bb           F           Gm              
        I wish I could unremember everything my heart's been
               Eb
        through
      
            Gm                      Eb
        Que nada aconteceu todos esses anos...
       Bb            F               Bb
        Eu não sei dizer que eu não te amo
      
      
      Solo Intro: Bb, F, Gm, Eb (2x)
      E|-10-8--------8~-----------|-10-11-10-8---------------| 
      B|------11------------------|------------11------------|
      G|---------10---------------|---------------10--12~----|
      D|--------------------------|--------------------------|
      A|--------------------------|--------------------------|
      E|--------------------------|--------------------------|I can´t unlove you...
      
      
      
        Composición: Wade Kirby, Will Robinson e Claudio RabelloColaboración y revision:
        • Download
        • edumatura
        • sem noçao

        Comentarios 2

        140 .
        140 cancelar

        ¿conseguiste tocar?

        covers

        ¡Grave un vídeo tocando Eu não sei dizer que eu não te amo y envie para nosotros!

        Ex.: http://www.youtube.com/watch?v=0IvSvIwGdwk
        ver cover de otras canciones »
        0:00 / 0:00

        Capitulos

          play/pausefechar subir/bajar velocidad
          6ª cuerda E5ª cuerda A4ª cuerda D3ª cuerda G2ª cuerda B1ª cuerda E
            acordes
            publicidad
            cerrar
            ok