Cifra Club

Armas Químicas e Poemas

Engenheiros do Hawaii

Tab de bajo: Principal
Já pensou em usar uma coleção de roupas do Cifra Club? Responda as perguntas abaixo e nos ajude nessa missão! →
Obs.: Essa linha de baixo contém algumas improvisações que ficam legais se tocadas junto com a versão
      original. Ouça bem a música pra pegar o ritmo certo.

Introd.Uh uh uh uh

G--------------------------------------------------------------------------------|
D--------------------------5-----------------------------------------------------|
A---------------------3--3---3---------------------------------------------------|
E---3—3-3----1-1-1--1------------6--3--6--3--------------------------------------|

Eu me lembro muito bem, como se fosse amanhã...

G--------------------------------------------------------------------------------|
D------------------7\5-----------------------------------------------------------|
A--------------5-5-----7------7---------10\8-------10--10-10---------------------|
E---10-10-10-------------5--5---5--8--8-------10\8-------------------------------|


...sobravam peças pelo chão...mesmo assim eu fui a luta, eu quis pagar pra ver...

G--------------------------------------------------------------------------------|
D--------------------------------------------------------------------------------|
A-------------------8h10---------8h10-------------555555-121212121212------------|
E--77777777-88-8h10------88-8h10--------77777777---------------------------------|

Aonde leva essa loucura, qual é a lógica do sistema, onde estavam as armas químicas,
o que diziam os poemas

G--------------------------------------------------------------------------------|
D--------------------------5-----------------------------------------------------|
A---------------------3--3---3---------------------------------------------------|
E---3—3-3----1-1-1--1------------6--3--6--3--------------------------------------|

O restante da música segue essa mesma seqüência
Composición de Humberto Gessinger
Colaboración y revisión:
  • Renato Maria
57 vistas

0 comentarios

Ver todos los comentarios

¿Lograste tocar?

1 Tocaron 0 Aún no

¡Graba un video tocando Armas Químicas e Poemas y envíanoslo!

00:00 / 00:00
Outros vídeos desta música
Repetir Calidad Automático
Outros vídeos desta música
00:00 / 00:00
Automático
OK